Song name
# A B C D E F G H I J K L M N O P Q R S T U V W X Y Z

Stadio - Lunedi Al Cinema tab

Stadio - Luned́ Al Cinema

Performed by Ricky Portera
Standard Tuning eBGDAE
Tab by Michele Caldaroni

INTRO

|-15-12--------------------------------------------|
|-------15-12--------------------------------------|
|--------------12-12-12/14---12------12--14--16\---|
|--------------------------------------------------|
|--------------------------------------------------|
|--------------------------------------------------|


VERSE

|-12--12\---x-12-13-15-12---12-13-15-12---|----14-14\---x-14-15-17-14---14-15-17-14\--|
|-----------------------------------------|-------------------------------------------|
|-----------------------------------------|-------------------------------------------|
|-----------------------------------------|-------------------------------------------|
|-----------------------------------------|-------------------------------------------|
|-----------------------------------------|-------------------------------------------|

|-12--12\---x-12-13-15-12---12-13-15-12\---|
|------------------------------------------|
|------------------------------------------|
|------------------------------------------|
|------------------------------------------|
|------------------------------------------|


CHORUS 

00:28 (dist)
|--------------------------------------|
|--------------------------------------|
|--9\7--7-9-10/15----/6--6--6-7-7/9----|
|--------------------------------------|
|--------------------------------------|
|--------------------------------------|

INTERLUDE

00:42
|-----------------------------------|
|--------10-------10-------10--12\--|
|--/11-9----/11-9----/11-9----------|
|-----------------------------------|
|-----------------------------------|
|-----------------------------------|

VERSE

CHORUS

INTERLUDE (Non rigorosamente come su)

*RIPETERE TUTTO*, QUINDI...

..OUTRO

02:25

|-15-12--------------------------15----17/10---17/15--17/10--17/15--17/10------|
|-------15-12------------------------------------------------------------------|
|--------------12-12-12/14-----------------------------------------------------|
|------------------------------------------------------------------------------|
|------------------------------------------------------------------------------|
|------------------------------------------------------------------------------|
Tap to rate this tab
# A B C D E F G H I J K L M N O P Q R S T U V W X Y Z