Guitaretab - guitar tabs
Song name
# A B C D E F G H I J K L M N O P Q R S T U V W X Y Z

Stage Dolls - Sorry tab

Sorry tabs by Stage Dolls, www,ultimate-guitartab.com

SORRY (IS ALL I CAN SAY) - STAGE DOLLS

Tabbed by: Stian LÝvli 
           stian_tkd@hotmail.com




Intro: 

E|--------------------------0---| 
B|------------------------0-----| 
G|------0-----0---------0-------| 
D|----2-----4---4---------------| 
A|--3----s5-------5-5s7---------| 
E|------------------------------| 

[ Tab from: http://www.guitaretab.com/s/stage-dolls/122148.html ]
E|-----------------------------0---| 
B|---------------------------0-----| 
G|---------0-----0---------0-------| 
D|-------2-----4---4---------------| 
A|--2s-3----s5-------5-5s7---------| 
E|---------------------------------| play 3x 




OUTRO: 

E|-----------------------------0-2------| 
B|---------------------------0----------| 
G|-------0-----0---------0-2------------| 
D|-----2---0-4---4-0-2-4----------------| 
A|---3----------------------------------| 
E|--------------------------------------| 


enjoy!
Related for Sorry tab