Guitaretab - guitar tabs
Song name
# A B C D E F G H I J K L M N O P Q R S T U V W X Y Z

Stage Dolls - 24 7 tab

24/7 by Stage Dolls

Tabbed by Stian LÝvli

e:-------------------------------------------------------------------|
B:-------------------------------------------------------------------|
G:-------------------4-4-------------------4-4-------------------4-4-|
D:-4-----4-----4-----4-4-4-----4-----4-----4-4-4-----4-----4-----4-4-|
A:-4-----4-----4-----2-2-4-----4-----4-----2-2-4-----4-----4-----2-2-|
E:-2--0--2--0--2--0------2--0--2--0--2--0------2--0--2--0--2--0------|




e:-------------------------------|
B:-------------------------------|
G:--------------------4-4--------|
D:--4-----4-----4-----4-4--------|
A:--4-----4-----4-----2-2--------|
E:--2--0--2--0--2--0-------------|



[ Tab from: http://www.guitaretab.com/s/stage-dolls/133404.html ]
e:------------------------------------------------------------------|
B:------------------------------------------------------------------|
G:----------------------------------------------4-4-----------------|
D:--4-----4-----4-----4-----4-4-----4-----4-----4-4-----------------| x 4
A:--4-----4-----4-----4-----4-4-----4-----4-----2-2-----------------|
E:--2--0--2--0--2--0--2--0--2-2--0--2--0--2--0----------------------|




e:------------------------------------------------------------------|
B:------------------------------------------------------------------|
G:--9-----------6-----9-----------6-----9-----------6-----4~--------|
D:--9-----8-----6-----9-----8-----6-----9-----8-----6-----4~--------|
A:--7-----6-----4-----7-----6-----4-----7-----6-----4-----2~--------|
E:------------------------------------------------------------------|


Enjoy!
Related for 24 7 tab