Guitaretab - guitar tabs
Song name
# A B C D E F G H I J K L M N O P Q R S T U V W X Y Z

Stage Dolls - Runnin Back To You tab

Runnin back to you by Stage Dolls

Tabbed by Stian LÝvli


INTRO:
e|-----------------\x/------------------\x/------|
B|--------------2h4p2p0--------------2h4p2p0-----|
G|--9---8---6------------9---8---4---------------|
D|--9---8---6------------9---8---4---------------|
A|--7---6---4------------7---6---2---------------|
E|-----------------------------------------------|



e|-----------------\x/---------------------------|
B|--------------2h4p2p0--------------2h4p2p0-----|
G|--9---8---6------------9---8---4---------------|
D|--9---8---6------------9---8---4---------------|
A|--7---6---4------------7---6---2---------------|
E|-----------------------------------------------|

[ Tab from: http://www.guitaretab.com/s/stage-dolls/53901.html ]
Main guitar part:
e|-------------------------------------------------------------------|
B|-------------------------------------------------------------------|
G|-------------------------------------------------------------------|  x4
D|-------------------------------------------------------------------| 
A|--6-6-6-6-6-6-6-6-2-2-2-2-2-2-2-2-9-9-9-9-9-9-9-9-4-4-4-4-4-4-4-4--|
E|--4-4-4-4-4-4-4-4-0-0-0-0-0-0-0-0-7-7-7-7-7-7-7-7-2-2-2-2-2-2-2-2--|



e|-----------------\x/------------------\x/------|
B|--------------2h4p2p0--------------2h4p2p0-----|
G|--9---8---6------------9---8---4---------------|
D|--9---8---6------------9---8---4---------------|
A|--7---6---4------------7---6---2---------------|
E|-----------------------------------------------|



e|-----------------\x/--------------------------------------|
B|--------------2h4p2p0--------------2h4p2p0-0-0-0h2h4p2p0--|
G|--9---8---6------------9---8---4--------------------------|   x2
D|--9---8---6------------9---8---4--------------------------|
A|--7---6---4------------7---6---2--------------------------|



e|-------------------------------------------------------------------|
B|-------------------------------------------------------------------|
G|-------------------------------------------------------------------|  x4
D|-------------------------------------------------------------------| 
A|--6-6-6-6-6-6-6-6-2-2-2-2-2-2-2-2-9-9-9-9-9-9-9-9-4-4-4-4-4-4-4-4--|
E|--4-4-4-4-4-4-4-4-0-0-0-0-0-0-0-0-7-7-7-7-7-7-7-7-2-2-2-2-2-2-2-2--|

(solo)

  x  Mute note
  h  Hammer on
  p  Pull off


Enjoy!
Related for Runnin Back To You tab