Song name
# A B C D E F G H I J K L M N O P Q R S T U V W X Y Z

Stage Dolls - Naked In The Rain tab

Naked In the rain by Stage Dolls


Tabbed by Stian LÝvli


e|-------0-----0----------0-----0-------0-----0---------0-----0--------|
B|---------------------------------------------------------------------|
G|-----2-----2---2------2-----2-------2-----2---2-----2-----2----------|
D|---0-----0-------0-2------4-----4-0-----0-------0-2-----4-----4------|  x 4
A|---------------------------------------------------------------------|
E|---------------------------------------------------------------------|




e|-----------------------------------------------------|
B|-----------------------------------------------------|
G|-----------------------------------------------------|
D|-----------------------------------------------------|
A|-----------------------------------------------------|
E|---5-9h10p9-7----/10-9-7----5-9h10p9-7----/10-9-7----|




e|-------0-----0----------0-----0-------0-----0---------0-----0--------|
B|---------------------------------------------------------------------|
G|-----2-----2---2------2-----2-------2-----2---2-----2-----2----------|
D|---0-----0-------0-2------4-----4-0-----0-------0-2-----4-----4------|  x 4
A|---------------------------------------------------------------------|
E|---------------------------------------------------------------------|




e|-----------------------------------------------------|
B|-----------------------------------------------------|
G|-----------------------------------------------------|
D|-----------------------------------------------------|
A|-----------------------------------------------------|
E|---5-9h10p9-7----/10-9-7----5-9h10p9-7----/10-9-7----|



  /  slide up
  h  hammer-on
  p  pull-off



Enjoy!
Tap to rate this tab
# A B C D E F G H I J K L M N O P Q R S T U V W X Y Z