Song name
# A B C D E F G H I J K L M N O P Q R S T U V W X Y Z

Stages And Stereos - Love Is Wasted On The Young tab

Okay this is not 100% right, but i think its good enough. Hope you like it =]

Tuning:Standard

E--11-11-11-------------------------------------------|
B-----------9-9-9-8-8-8-9-9-9-13-13-------------------|
G-----------------------------------13-13-------------| 4x
D-----------------------------------------------------|
A-----------------------------------------------------|
E-----------------------------------------------------|

E--11---------------------------|
B-----9-8--8-11~-9-8-8-9-8~~~~--|
G-------------------------------|
D-------------------------------| 5x
A-------------------------------|
E-------------------------------|

E--------------11-11-11-8-8-8-----------------------11-11-11-11-11-11-11-|
B--8-8-8-9-9-9----------------11-11-9-9-8-8-8-9-9-9----------------------|
G------------------------------------------------------------------------|
D------------------------------------------------------------------------|
A------------------------------------------------------------------------|
E------------------------------------------------------------------------|
Tap to rate this tab
 
# A B C D E F G H I J K L M N O P Q R S T U V W X Y Z