Song name
# A B C D E F G H I J K L M N O P Q R S T U V W X Y Z

Stages And Stereos - Maybe Well Make It After All tab

-------------------------------------------------------------------------------
         Maybe We'll Make It After All - Stages & Stereos
-------------------------------------------------------------------------------
Tabbed by: Handyman25 (J. Handy)

Tuning:Standard
Intro and verses:
  Dm         Gsus4   Bbsus2
e|5--5---5----3-----------------------|
B|6-6--6--6----6-6---7---6-5-6--------|
G|7-------------5----5--5-5-5-------x2|
D|7-----------------------------------|
A|5-----------------------------------|
E|------------3------6----------------|

Pre-Chorus:
I'm not too sure on this, but it is all C's and F's so you can just fiddle about i guess 
and see what works best for you. I personally like hammering on the 1 to 3 on the C 
chord every so often:)
  C        F
e|------------------------|
B|1-1-1-1--1-1-1-1--------|
G|-0-0-0-0----------------|
D|2-2-2-2---3-3-3-3-----x2|
A|3-3-3-3--3-3-3-3--------|
E|---------1-1-1-1--------|

Chorus:
These are just in basic power/5 chords.

e|------------------------------------------------------|
B|------------------------------------------------------|
G|3-3-3-3--5-5-5-5--7-7-7-7--5-5-5-5----3-3-3-3--3-3-3-3|
D|3-3-3-3--5-5-5-5--7-7-7-7--5-5-5-5-x3-3-3-3-3--5-5-5-5|
A|1-1-1-1--3-3-3-3--5-5-5-5--3-3-3-3----1-1-1-1--3-3-3-3|
E|------------------------------------------------------|

The bridge and final chorus are just more involved with the piano and more emotional, 
but pretty much the same. This is just a template, play around with it, make it sound how 
you want and comment with any suggestions/corrections.
Please note: This was done by ear, so it isn't note for note perfect, that's why it's 
just a template really...

Intro
Verse
Pre-Chorus
Chorus
Verse
Pre-Chorus
Chorus
Bridge
Chorus.

Much love for this song <3
Tap to rate this tab
# A B C D E F G H I J K L M N O P Q R S T U V W X Y Z