Song name
# A B C D E F G H I J K L M N O P Q R S T U V W X Y Z

Stahlhammer - Feind Hort Mit tab

               STAHLHAMMER- FEIND HORT MIT

TABBED BY: JACOB POPOWSKI
/-slide
.=palm mute


Guitar enters at :25
Gitarre trgt an :25 

Riff 1 x4 
Riff 2 x6 
Riff 3 x1
Riff 2 x4
Riff 3 x1
Riff 1 x4
Riff 2 x7
Riff 3 x1
Riff 1 x5
Sitar interlude
Riff 1 x13 (fade out)
                Riff 1
e|---------------------------------------------------------------------------|
B|---------------------------------------------------------------------------|
G|---------------------------------------------------------------------------|
D|---------------------------------------------------------------------------|
A|-7/8/7/8/7-5-----4/5/4/5/4-2-----------------------------------------------|
E|-5/6/5/6/5-3-0-0-2/3/2/3/2-0-0-0-------------------------------------------|
               . .             . .
                 Riff 2
e|---------------------------------------------------------------------------|
B|---------------------------------------------------------------------------|
G|---------------------------------------------------------------------------|
D|---------------------------------------------------------------------------|
A|-7/8/7/8/7-5---------------------4/5/4/5/4-2-------------------------------|
E|-5/6/5/6/5-3-0-0-0-0-0-0-0-0-0-0-2/3/2/3/2-0-0-0-0-0-0-0-0-0-0-0-----------|
               . . . . . . . . . .             . . . . . . . . . .
                Riff 3
e|---------------------------------------------------------------------------|
B|---------------------------------------------------------------------------|
G|---------------------------------------------------------------------------|
D|------7-9-10-7-5-3-----7-9-10-7-5-3----7-9-10-7-5-3-----7-9-10-7-9-10------|
A|----7----------------7---------------7----------------7--------------------|
E|--0-5--------------0-5-------------0-5--------------0-5--------------------|
    .                .               .                .

Tap to rate this tab
# A B C D E F G H I J K L M N O P Q R S T U V W X Y Z