Song name
# A B C D E F G H I J K L M N O P Q R S T U V W X Y Z

Stahlmann - Willkommen tab

Willkommen
Intro
D-----------------------------|
A-----------------------------|
F-----------------------------|
C0-1-0-1-01-0-1-0-1-0-------0|
G0-1-0-1-01-0-1-0-1-0(x4)---0|
C0-1-0-1-01-0-1-0-1-0-------0|
Verse

D--------------------------------------------------------|
A--------------------------------------------------------|
F--------------------------------------------------------|
C0-1-0-1-0----8-9-8-9-89-0----0-1-0-1-0----8-9-8-9-89-0-|
G0-1-0-1-0----8-9-8-9-89-0----0-1-0-1-0----8-9-8-9-89-0-|
C0-1-0-1-0----8-9-8-9-89-0----0-1-0-1-0----8-9-8-9-89-0-|
D---------------|
A---------------|
F---------------|
C00------5-----|
G00(x16)-5(x9)-|
C00------5-----|
Chorus
D----------------------------------------|
A----------------------------------------|
F----------------------------------------|
C0---0------10------0------3-----10-----|
G0---0(x14)-10(x16)-0(x16)-3(x8)-10(x8)-|
C0---0------10------0------3-----10-----|
Intro
D-----------------------------|
A-----------------------------|
F-----------------------------|
C0-1-0-1-01-0-1-0-1-0-------0|
G0-1-0-1-01-0-1-0-1-0(x2)---0|
C0-1-0-1-01-0-1-0-1-0-------0|
Verse

D--------------------------------------------------------|
A--------------------------------------------------------|
F--------------------------------------------------------|
C0-1-0-1-0----8-9-8-9-89-0----0-1-0-1-0----8-9-8-9-89-0-|
G0-1-0-1-0----8-9-8-9-89-0----0-1-0-1-0----8-9-8-9-89-0-|
C0-1-0-1-0----8-9-8-9-89-0----0-1-0-1-0----8-9-8-9-89-0-|
D---------------|
A---------------|
F---------------|
C00------5-----|
G00(x16)-5(x9)-|
C00------5-----|

Chorus
D----------------------------------------|
A----------------------------------------|
F----------------------------------------|
C0---0------10------0------3-----10-----|
G0---0(x14)-10(x16)-0(x16)-3(x8)-10(x8)-|
C0---0------10------0------3-----10-----|
Interlude
D--------------------------------------------------------------|
A--------------------------------------------------------------|
F--------------------------------------------------------------|
C0-1-0-----0-1-0-----0-1-0-1-01-0-1-0-1-01-0-1-0-1-01-0-1-0-1-|
G0-1-0-----0-1-0-----01-0-1-01-0-1-0-1-01-0-1-0-1-01-0-1-0-1-|
C0-1-0-----0-1-0-----0-1-0-1-01-0-1-0-1-01-0-1-0-1-01-0-1-0-1-|
Chorus
D-----------------------------|
A-----------------------------|
F-----------------------------|
C10------0------3-----10-----|
G10(x16)-0(x16)-3(x8)-10(x8)-|
C10------0------3-----10-----|

D-------------------------------------------|
A-------------------------------------------|
F-------------------------------------------|
C0------10------0------3-----10------0-1-0-|
G0(x14)-10(x16)-0(x16)-3(x8)-10(x8)--0-1-0-|
C0------10------0------3-----10------0-1-0-|
Tap to rate this tab
# A B C D E F G H I J K L M N O P Q R S T U V W X Y Z