Song name
# A B C D E F G H I J K L M N O P Q R S T U V W X Y Z

Stahlmann - Asche tab

Asche
Quecksilber
Drop C

Riff principal qui se répète pendant le refrain

D|------------|
A|------------|
F|------------|
C|5--3--5--3-0|
G|5--3--5--3-0|
C|5--3--5--3-0|

Pendant le couplet

D|------------|
A|------------|
F|------------|
C|------------|
G|------------|
C|5--3--5--3-0|

Il faut écouter la musique pour pouvoir avoir le rythme
Tap to rate this tab
# A B C D E F G H I J K L M N O P Q R S T U V W X Y Z