Song name
# A B C D E F G H I J K L M N O P Q R S T U V W X Y Z

Stahlmann - Kokain tab

D|----------------|----------------|
A|----------------|----------------|
F|----------------|----------------|
C|0030-0300030-003|0030-0300030-011|
G|0030-0300030-003|0030-0300030-011|
C|0030-0300030-003|0030-0300030-011|

D|--------|----------------|
A|--------|----------------|
F|--------|----------------|
C|3-3-3555|0030-0300030-003|
G|3-3-3555|0030-0300030-003|
C|3-3-3555|0030-0300030-003|

D|----------------------|--------------------|
A|----------------------|--------------------|
F|----------------------|--------------------|
C|0-0-0------3-3-3------|0-0-0------3-3-35555|
G|0-0-0------3-3-3------|0-0-0------3-3-35555|
C|0000000000033333333333|00000000000333335555|

D|--------------|
A|--------------|
F|--------------|
C|3-5-8-5--3-8-5|
G|3-5-8-5--3-8-5|
C|3-5-8-5--3-8-5|
Tap to rate this tab
# A B C D E F G H I J K L M N O P Q R S T U V W X Y Z