Song name
# A B C D E F G H I J K L M N O P Q R S T U V W X Y Z

Stahlmann - Letzter Vorhang tab

Drop C

D|-----------------------|
A|-----------------------|
F|-----------------------|
C|0-----3-----8-----7----|
G|0(x8)-3(x8)-8(x8)-7(x8)|
C|0-----3-----8-----7----|

D|-------------------|
A|-------------------|
F|-------------------|
C|-------------------|
G|-------------------|
C|323-3-23-23-23-2322|
                   HH

D|------------------|
A|------------------|
F|------------------|
C|3------8-----7----|
G|3(x16)-8(x8)-7(x8)|
C|3------8-----7----|
Tap to rate this tab
 
# A B C D E F G H I J K L M N O P Q R S T U V W X Y Z