Song name
# A B C D E F G H I J K L M N O P Q R S T U V W X Y Z

Staind - Rainy Day Parade tab

Intro/Verse Guitar 1
|----------------------------|
|---9--9--9--9---8--8---6--6-|
|-9--7--7--7---8--6---6--4---|
|-9------------8------6------|
|-7------------6------4------|
|----------------------------|

Guitar 2
|----------------------------|
|----------------------------|
|-9------------8------6------|
|-9------------8------6------|
|-7------------6------4------|
|----------------------------|

Guitar 1
|----------------------------|
|---9--9--9--9---8--8---6--6-|
|-9--7--7--7---8--6---6--4---|
|-9------------8------6------|
|-7------------6------4------|
|----------------------------|

Guitar 2
|----------------------------|
|----------------------------|
|-9------------8------6------|
|-9------------8------6------|
|-7------------6------4------|
|----------------------------|

Guitar 1
|----------------------------|
|---9--9--9--9---8--8---6--6-|
|-9--7--7--7---8--6---6--4---|
|-9------------8------6------|
|-7------------6------4------|
|----------------------------|

Guitar 2
|----------------------------|
|----------------------------|
|-9------------8------6------|
|-9------------8------6------|
|-7------------6------4------|
|----------------------------|

Guitar 1
|--------------------------|
|---9--9--9--9--8--8--6--6-|
|-7--7--7--7--6--6--4--4---|
|--------------------------|
|--------------------------|
|--------------------------|

Guitar 2
|---------------------------------|
|---------------------------------|
|-9-9-9-9-9-9-9-9-8-8-8-8-8-8-8-8-|
|-9-9-9-9-9-9-9-9-8-8-8-8-8-8-8-8-|
|-7-7-7-7-7-7-7-7-6-6-6-6-6-6-6-6-|
|---------------------------------|

Chorus
|---------------------------------------------------------------------------------|
|---------------------------------------------------------------------------------|
|-9-9-9-9-9-9-9-9-9-9-9-9-9-9-9-9-11-11-11-11-11-11-11-11-11-11-11-11-11-11-11-11-|
|-9-9-9-9-9-9-9-9-9-9-9-9-9-9-9-9-11-11-11-11-11-11-11-11-11-11-11-11-11-11-11-11-|
|-7-7-7-7-7-7-7-7-7-7-7-7-7-7-7-7--9--9--9--9--9--9--9--9--9--9--9--9--9--9--9--9-|
|---------------------------------------------------------------------------------|

|-----------------------------------------------------------------|
|-----------------------------------------------------------------|
|-9-9-9-9-9-9-9-9-9-9-9-9-9-9-9-9-8-8-8-8-8-8-8-8-6-6-6-6-6-6-6-6-|
|-9-9-9-9-9-9-9-9-9-9-9-9-9-9-9-9-8-8-8-8-8-8-8-8-6-6-6-6-6-6-6-6-|
|-7-7-7-7-7-7-7-7-7-7-7-7-7-7-7-7-6-6-6-6-6-6-6-6-4-4-4-4-4-4-4-4-|
|-----------------------------------------------------------------|

Bridge
|-----------------------------------------------------------------|
|-----------------------------------------------------------------|
|-9-9-9-9-9-9-9-9-8-8-8-8-8-8-8-8-6-6-6-6-6-6-6-6-6-6-6-6-6-6-6-6-|
|-9-9-9-9-9-9-9-9-8-8-8-8-8-8-8-8-6-6-6-6-6-6-6-6-6-6-6-6-6-6-6-6-|
|-7-7-7-7-7-7-7-7-6-6-6-6-6-6-6-6-4-4-4-4-4-4-4-4-4-4-4-4-4-4-4-4-|
|-----------------------------------------------------------------|
P.M.                                              .       .

End Bridge On
|---------------------------------|
|---------------------------------|
|-9-9-9-9-9-9-9-9-8-8-8-8-8-8-8-8-|
|-9-9-9-9-9-9-9-9-8-8-8-8-8-8-8-8-|
|-7-7-7-7-7-7-7-7-6-6-6-6-6-6-6-6-|
|---------------------------------|
Tap to rate this tab
 
# A B C D E F G H I J K L M N O P Q R S T U V W X Y Z