Song name
# A B C D E F G H I J K L M N O P Q R S T U V W X Y Z

Staind - 4 Walls tab

Help us improve GuitareTab! Take a short survey!
Band: 	Staind
Song:	4 Walls
Album:	Tormented

INTRO/VERSE

Eb|-------------------------------|
Bb|-------------------------------|
Gb|-------------------------------|
Db|----7h8---------5--------------|
Ab|----------5h6-----5-----6p5----|
Db|--5-----5-----5-----5-------3--|

Eb|-------------------------------|
Bb|-------------------------------|
Gb|-------------------------------|
Db|----7h8---------5-----------3--|
Ab|----------5h6-----5------------|
Db|--5-----5-----5-----5---0-3----|


CHORUS

Eb|-------------|
Bb|-------------|
Gb|--7---7-7-5--|
Db|--5---5-5-3--|
Ab|--5---5-5-3--|
Db|--5---5-5-3--|


INTERLUDE

Eb|--------------------|
Bb|--------------------|
Gb|--10-10-10-10p9-----|
Db|----------------10--|
Ab|--------------------|
Db|--------------------|

thanks,tyler
Related for 4 Walls tab