Song name
# A B C D E F G H I J K L M N O P Q R S T U V W X Y Z

Staind - Yesterday tab

Help us improve GuitareTab! Take a short survey!
drop db

verse - a lot of echo
eb ----------------------|
bb -7-----------10-10----|
gb -6-6---------9--------|
db ----------------------|
ab ----------------------|
db ----------------------|

chorus - distortion
eb ---------------------------------------------|
bb --7---------10--------5----------------------|
gb --6---------9---------4----------------------|
db --4-4-4-4---7-7-7-7---2-2-2-2--7-7-7-6-6-6---|
ab --4-4-4-4---7-7-7-7---2-2-2-2--0-0-0-0-0-0---|
db --4-4-4-4---7-7-7-7---2-2-2-2--0-0-0-0-0-0---|

bridge
eb ------------------------------------------------------------|
bb ------------------------------------------------------------|
gb ------------------------------------------------------------|
db -4-4-4---4-4-4---4-4-4--7p6-6-6-6h7-7-7-7-9-9-9-9-9-9-9-9---|
ab -4-4-4---4-4-4---4-4-4--------------------------------------|
db -4-4-4---4-4-4---4-4-4--------------------------------------|

eb ---------------------------------------------------------------------------|
bb ---------------------------------------------------------------------------|
gb --------4-4-4--------6-6-6--------7-7-7---------------------7-7-7-7-7\-4---|
db -4-4-4--6-6-6--4-4-4-7-7-7--4-4-4-9-9-9---7\-6-6-6-6/-7-7-7-9-9-9-9-9\-6---|
ab -4-4-4---------4-4-4--------4-4-4------------------------------------------|
db -4-4-4---------4-4-4--------4-4-4------------------------------------------|

and thats all. any commensts welcomel...please rate...
Related for Yesterday tab