Song name
# A B C D E F G H I J K L M N O P Q R S T U V W X Y Z

Staind - Come Again tab

intro
e(-----------------------------)
b(-----------------------------)
g(-----------------------------)
d(-----------------------------)
a(--0-4-0-4-0-4-0-4-0----------)
D(--------------------22222222-)
  pm. . . . . . . . . ........

chorus
e(-----------------------------------)
b(-----------------------------------)
g(--6-5-6-5-9-12-9-10-13-2-222222222-)
d(--6-5-6-5-9-12-9-10-13-2-222222222-)
a(--4-3-4-3-7-10-7--8-11-0-000000000-)
D(-----------------------------------)
                       pm. .........

verse
e(------------11-)(------------------)
b(-----676----11-)(----77889---------)
g(--66-----66----)(--8---------------)
d(---------------)(----------1-00100-)
a(---------------)(----------1-00100-)
D(---------------)(----------1-00100-)
                           pm. .....

bridge
e(---------------------------)(--------------------------------------)
b(---------------------------)(--------------------------------------)
g(---------------------------)(--------------------------------------)
d(--8h9-8-5p4-0-2-0-00000000-)(--6h7-7-7-77777777-3p2-0-2-2-22222222-)
a(--8h9-8-5p4-0-2-0-00000000-)(--------------------------------------)
D(--6h7-6-3p2-0-2-0-00000000-)(--------------------------------------)
                pm. ........
Tap to rate this tab
# A B C D E F G H I J K L M N O P Q R S T U V W X Y Z