Song name
# A B C D E F G H I J K L M N O P Q R S T U V W X Y Z

Staind - Everything Changes tab

okay i decided to put an Everything Changes Solo by Staind
I've been listening to their new Cd The Singles 1996 - 2006 and been listening to 
Changes (Acoustic Live)
and so heres my version of the song

Oh i decided to tab two solo's of these one for Standard and one for Half Tune..Due to 
people think that its in Standard tuning or Half Step..Okay enjoy Rate Me
by the way i did this in my acoustic guitar

Standard Tuning (EADGBE)
|-------------------------------------------------|
|--8~-8-6--------------13~--11-----------11-------|
|--------8-7-7h8p7-5----------13-12-13----10------|
|-------------------------------------------------|
|-------------------------------------------------|
|-------------------------------------------------|

|----------------------------6/11--11-10-8-8/13-13--11--10----|
|------------------------11-----------------------------------|
|--10-12-13-12-12-12--13--------------------------------------|
|-------------------------------------------------------------|
|-------------------------------------------------------------|
|-------------------------------------------------------------|

|--13/15--15~-13-11-10--------------------------------------|
|---------------------11/13-13-11---------------------------|
|---------------------------------12----8~-7~-5~-3~---------|
|------------------------------------10---------------------|
|-----------------------------------------------------------|
|-----------------------------------------------------------|


1/2 step Down (EbAbDbGbBbEb)
|-------------------------------------------------|
|--9~-9-7--------------14~--12----------12--------|
|--------9-8-8h9p8-6----------14-13-14----11------|
|-------------------------------------------------|
|-------------------------------------------------|
|-------------------------------------------------|

|----------------------------7/12--12-11-9-9/14-14--12--11----|
|------------------------12-----------------------------------|
|--11-13-14-13-13-13--14--------------------------------------|
|-------------------------------------------------------------|
|-------------------------------------------------------------|
|-------------------------------------------------------------|

|--14/16--16~-14-12-11--------------------------------------|
|---------------------12/14-14-12---------------------------|
|---------------------------------13----9~-8~-6~-4~---------|
|------------------------------------11---------------------|
|-----------------------------------------------------------|
|-----------------------------------------------------------|
Tap to rate this tab
# A B C D E F G H I J K L M N O P Q R S T U V W X Y Z