Song name
# A B C D E F G H I J K L M N O P Q R S T U V W X Y Z

Staind - Run Away tab

Staind - Run Away

Tabbed by: bLeYz3 (paulo_pinho_20@hotmail.com) PORTUGAL


Intro

Guitar 1
|------------------------------------|
|--------------------5-5-5-xx-5-5-5--|
|--5-5-5-5-xx-5-5-xx-----------------|2x
|--3-3-3-3-xx-3-3-xx-7-7-7-xx-7-7-7--|
|------------------------------------|
|------------------------------------|

|----------------------------------------------------------------|
|----------------------------------------------------------------|
|----------------------------------------------------------------|
|----------------------------------------------------------------|
|--0----0---0--x--0----0---0--x--3----3---3--x--3----3---3-------|
|--0----0---0--x--0----0---0--x--3----3---3--x--3----3---3-------|


Guitar 2

|-------------------------------------------------|
|---------13----13----13-------11----11----11/13--|
|-9/10-10----10----10----10-10----10----10--------|
|-------------------------------------------------|
|-------------------------------------------------|
|-------------------------------------------------|


Verse

|------------------------------------|
|------------------5~~~~~~~~---------|
|--5~~~~~~~~-------------------------|3x
|--3~~~~~~~~-------7~~~~~~~~---------|
|------------3-3-3-----------3-3-3---|
|------------3-3-3-----------3-3-3---|
pm           . . .           . . .

|------------------------------------|
|------------------5~~~~~~~~~~~~~~~~~|
|--5~~~~~~~~-------------------------|
|--3~~~~~~~~-------7~~~~~~~~~~~~~~~~~|
|------------3-3-3-------------------|
|------------3-3-3-------------------|

Chorus
Guitar 1
|------------------------------------------------------------------|
|------------------------------------------------------------------|
|------------------------------------------------------------------|4x
|------------------------------------------------------------------|
|--0----0---0--x--0----0---0--x--3----3---3--x--3/5----5---5-------|
|--0----0---0--x--0----0---0--x--3----3---3--x--3/5----5---5-------|

Guitar 2-
|--------------------------------15---------------14---------------|
|----------------------------------------------------------15------|
|-------------------14---------------------------------------------|4x
|-------------12-----------15--------------------------------------|
|------------------------------------------------------------------|
|------------------------------------------------------------------|

Bridge
|--13~~~----13----13~~~~---------------------------13/15-13----13~~--|
|--15~~~-15----15--------13-15-13-15~~13-15-13-15~~---------15-15~~--|
|--14~~~-------------------------------------------------------14~~--|
|--------------------------------------------------------------------|
|--------------------------------------------------------------------|
|--------------------------------------------------------------------|

|--13/15-13----13~~------15-----------15-----13-13----13----13----13-|
|-----------15-15~~13-15----15~~13-15----15--15----15----15----15----|
|--------------14~~--------------------------14----------------------|
|--------------------------------------------------------------------|
|--------------------------------------------------------------------|
|--------------------------------------------------------------------|

|-----------------------------13/15-13----13~~13/15-13----13~~------15------|
|-----15----15~~----15----15~~---------15-15~~---------15-15~~13-15----15~~-|
|--14----14------14----14-----------------14~~------------14~~--------------|
|---------------------------------------------------------------------------|
|---------------------------------------------------------------------------|
|---------------------------------------------------------------------------|

|--------15------13-------------13----13----13-------11----11----11/13--|
|--13-15----15~~-15-----9/10-10----10----10----10-10----10----10--------|
|----------------14-----------------------------------------------------|
|-----------------------------------------------------------------------|
|-----------------------------------------------------------------------|
|-----------------------------------------------------------------------|
Tap to rate this tab
 
# A B C D E F G H I J K L M N O P Q R S T U V W X Y Z