Song name
# A B C D E F G H I J K L M N O P Q R S T U V W X Y Z

Staind - Scars tab

These are the tabs for the song Scars from Staind. It's on the album Break the Cycle. We 
it's a bonus track, cause we couldn't find it anywhere on the internet. It's quite 
you just have to tune you guitar a little different.

----------------------------------------------------------------------------
			     Scars - Staind
----------------------------------------------------------------------------

Tabbed by: Guitar-Marc en leadsinger-Len (Rotterdam, Netherlands)
Email: lenenlen@gmail.com

Tuning: Tune down half step; Eb - G# - C# - F# - Bb - eb

----------------------------------------------------------------------------

INTRO

eb|------------------------------------------------------------------------|
Bb|------------------------------------------------------------------------|
F#|----------0-----------------0-----------------0-----------------0-------|
C#|-------2-----2-----------2-----2-----------2-----2-----------2-----2----|
G#|----2-----------2-----2-----------2-----2-----------2-----2-----------2-|
Eb|-0-----------------0-----------------0-----------------0----------------|

eb|------------------------------------------------------------------------|
Bb|------------------------------------------------------------------------|
F#|----------0-----------------0-----------------0-----------------0-------|
C#|-------4-----4-----------4-----4-----------4-----4-----------4-----4----|
G#|----2-----------2-----2-----------2-----2-----------2-----2-----------2-|
Eb|-3-----------------3-----------------3-----------------3----------------|

                                                                       Well

VERSE 1

eb|------------------------------------------------------------------------|
Bb|------------------------------------------------------------------------|
F#|----------0-----------------0-----------------0-----------------0-------|
C#|-------2-----2-----------2-----2-----------2-----2-----------2-----2----|
G#|----2-----------2-----2-----------2-----2-----------2-----2-----------2-|
Eb|-0-----------------0-----------------0-----------------0----------------|

    I know the words,            but I can't really speak them,         to

eb|------------------------------------------------------------------------|
Bb|------------------------------------------------------------------------|
F#|----------0-----------------0-----------------0-----------------0-------|
C#|-------4-----4-----------4-----4-----------4-----4-----------4-----4----|
G#|----2-----------2-----2-----------2-----2-----------2-----2-----------2-|
Eb|-3-----------------3-----------------3-----------------3----------------|

    you,                                                              and I

eb|------------------------------------------------------------------------|
Bb|------------------------------------------------------------------------|
F#|----------0-----------------0-----------------0-----------------0-------|
C#|-------2-----2-----------2-----2-----------2-----2-----------2-----2----|
G#|----2-----------2-----2-----------2-----2-----------2-----2-----------2-|
Eb|-0-----------------0-----------------0-----------------0----------------|

    hide all the pain,        that I've gained with my wisdom,          from

eb|------------------------------------------------------------------------|
Bb|------------------------------------------------------------------------|
F#|----------0-----------------0-----------------0-----------------0-------|
C#|-------4-----4-----------4-----4-----------4-----4-----------4-----4----|
G#|----2-----------2-----2-----------2-----2-----------2-----2-----------2-|
Eb|-3-----------------3-----------------3-----------------3----------------|

    you,                                                             and I'm

eb|------------------------------------------------------------------------|
Bb|------------------------------------------------------------------------|
F#|----------0-----------------0-----------------0-----------------0-------|
C#|-------2-----2-----------2-----2-----------2-----2-----------2-----2----|
G#|----2-----------2-----2-----------2-----2-----------2-----2-----------2-|
Eb|-0-----------------0-----------------0-----------------0----------------|

    eaten alive,                by what I hold inside,               all the

eb|------------------------------------------------------------------------|
Bb|------------------------------------------------------------------------|
F#|----------0-----------------0-----------------0-----------------0-------|
C#|-------4-----4-----------4-----4-----------4-----4-----------4-----4----|
G#|----2-----------2-----2-----------2-----2-----------2-----2-----------2-|
Eb|-3-----------------3-----------------3-----------------3----------------|

    things that I live with,    I can't easily hide,                 and I'm

eb|------------------------------------------------------------------------|
Bb|------------------------------------------------------------------------|
F#|----------0-----------------0-----------------0-----------------0-------|
C#|-------2-----2-----------2-----2-----------2-----2-----------2-----2----|
G#|----2-----------2-----2-----------2-----2-----------2-----2-----------2-|
Eb|-0-----------------0-----------------0-----------------0----------------|

    left here with nothing,             nothing to live for,             but

eb|------------------------------------------------------------------------|
Bb|------------------------------------------------------------------------|
F#|----------0-----------------0-----------------0-----------------0-------|
C#|-------4-----4-----------4-----4-----------4-----4-----------4-----4----|
G#|----2-----------2-----2-----------2-----2-----------2-----2-----------2-|
Eb|-3-----------------3-----------------3-----------------3----------------|

    you,                                                            It's not


CHORUS

eb|------------------------------------------------------------------------|
Bb|----------0-----------------0-----------------0-----------------0-------|
F#|-------2-----2-----------2-----2-----------0-----0-----------0-----0----|
C#|----2-----------2-----2-----------2-----2-----------2-----2-----------2-|
G#|-0-----------------0-----------------3-----------------3----------------|
Eb|------------------------------------------------------------------------|

    easy to hide,              All this damage inside,                  I'll

eb|------------------------------------------------------------------------|
Bb|----------0-----------------0-----------------0-----------------0-------|
F#|-------2-----2-----------2-----2-----------0-----0-----------0-----0----|
C#|----2-----------2-----2-----------2-----2-----------2-----2-----------2-|
G#|-0-----------------0-----------------3-----------------3----------------|
Eb|------------------------------------------------------------------------|

    carry you with me,            until I'm not alive,

eb|------------------------------------------------------------------------|
Bb|------------------------------------------------------------------------|
F#|----------0-----------------0-----------------0-----------------0-------|
C#|-------2-----2-----------2-----2-----------2-----2-----------2-----2----|
G#|----2-----------2-----2-----------2-----2-----------2-----2-----------2-|
Eb|-0-----------------0-----------------0-----------------0----------------|

                                                                   When you

VERSE 2

eb|------------------------------------------------------------------------|
Bb|------------------------------------------------------------------------|
F#|----------0-----------------0-----------------0-----------------0-------|
C#|-------2-----2-----------2-----2-----------2-----2-----------2-----2----|
G#|----2-----------2-----2-----------2-----2-----------2-----2-----------2-|
Eb|-0-----------------0-----------------0-----------------0----------------|

    look at my face,       does it seem just as ugly?                    To

eb|------------------------------------------------------------------------|
Bb|------------------------------------------------------------------------|
F#|----------0-----------------0-----------------0-----------------0-------|
C#|-------4-----4-----------4-----4-----------4-----4-----------4-----4----|
G#|----2-----------2-----2-----------2-----2-----------2-----2-----------2-|
Eb|-3-----------------3-----------------3-----------------3----------------|

    you?                                                             I can't

eb|------------------------------------------------------------------------|
Bb|------------------------------------------------------------------------|
F#|----------0-----------------0-----------------0-----------------0-------|
C#|-------2-----2-----------2-----2-----------2-----2-----------2-----2----|
G#|----2-----------2-----2-----------2-----2-----------2-----2-----------2-|
Eb|-0-----------------0-----------------0-----------------0----------------|

    seem to erase,              all the scars I have lived with,       from

eb|------------------------------------------------------------------------|
Bb|------------------------------------------------------------------------|
F#|----------0-----------------0-----------------0-----------------0-------|
C#|-------4-----4-----------4-----4-----------4-----4-----------4-----4----|
G#|----2-----------2-----2-----------2-----2-----------2-----2-----------2-|
Eb|-3-----------------3-----------------3-----------------3----------------|

    you,                                                              I'm so

eb|------------------------------------------------------------------------|
Bb|------------------------------------------------------------------------|
F#|----------0-----------------0-----------------0-----------------0-------|
C#|-------2-----2-----------2-----2-----------2-----2-----------2-----2----|
G#|----2-----------2-----2-----------2-----2-----------2-----2-----------2-|
Eb|-0-----------------0-----------------0-----------------0----------------|

    sick of this place,            this taste in my mouth,          cause of

eb|------------------------------------------------------------------------|
Bb|------------------------------------------------------------------------|
F#|----------0-----------------0-----------------0-----------------0-------|
C#|-------4-----4-----------4-----4-----------4-----4-----------4-----4----|
G#|----2-----------2-----2-----------2-----2-----------2-----2-----------2-|
Eb|-3-----------------3-----------------3-----------------3----------------|

    you I can't figure,            what I'm all about,               and I'm

eb|------------------------------------------------------------------------|
Bb|------------------------------------------------------------------------|
F#|----------0-----------------0-----------------0-----------------0-------|
C#|-------2-----2-----------2-----2-----------2-----2-----------2-----2----|
G#|----2-----------2-----2-----------2-----2-----------2-----2-----------2-|
Eb|-0-----------------0-----------------0-----------------0----------------|

    left here with nothing,             nothing to live for,            but

eb|------------------------------------------------------------------------|
Bb|------------------------------------------------------------------------|
F#|----------0-----------------0-----------------0-----------------0-------|
C#|-------4-----4-----------4-----4-----------4-----4-----------4-----4----|
G#|----2-----------2-----2-----------2-----2-----------2-----2-----------2-|
Eb|-3-----------------3-----------------3-----------------3----------------|

    you,                                                            It's not


CHORUS

eb|------------------------------------------------------------------------|
Bb|----------0-----------------0-----------------0-----------------0-------|
F#|-------2-----2-----------2-----2-----------0-----0-----------0-----0----|
C#|----2-----------2-----2-----------2-----2-----------2-----2-----------2-|
G#|-0-----------------0-----------------3-----------------3----------------|
Eb|------------------------------------------------------------------------|

    easy to hide,              all this damage inside,                  I'll

eb|------------------------------------------------------------------------|
Bb|----------0-----------------0-----------------0-----------------0-------|
F#|-------2-----2-----------2-----2-----------0-----0-----------0-----0----|
C#|----2-----------2-----2-----------2-----2-----------2-----2-----------2-|
G#|-0-----------------0-----------------3-----------------3----------------|
Eb|------------------------------------------------------------------------|

    carry you with me,             'til I'm not alive.

OUTRO

eb|------------------------------------------------------------------------|
Bb|------------------------------------------------------------------------|
F#|----------0-----------------0-----------------0-----------------0-------|
C#|-------2-----2-----------2-----2-----------2-----2-----------2-----2----|
G#|----2-----------2-----2-----------2-----2-----------2-----2-----------2-|
Eb|-0-----------------0-----------------0-----------------0----------------|

eb|------------------------------------------------------------------------|
Bb|------------------------------------------------------------------------|
F#|------------------------------------------------------------------------|
C#|------------------------------------------------------------------------|
G#|------------------------------------------------------------------------|
Eb|-0----------------------------------------------------------------------|
Tap to rate this tab
# A B C D E F G H I J K L M N O P Q R S T U V W X Y Z