Song name
# A B C D E F G H I J K L M N O P Q R S T U V W X Y Z

Staind - All I Want tab

Help us improve GuitareTab! Take a short survey!
The Intro, Verses and Chorus are all the same chord progression.. I just play the Verses 
different chord styles to give it a little more variation.
Intro/Chorus
eb|------------------|
Bb|------------------|
Gb|-----13--10--8--6-|
Db|-----11--8---6--4-|
Ab|-----11--8---6--4-|
Db|-----11--8---6--4-|

Verses
eb|----------------|
Bb|----------------|
Gb|--6--3----------|
Db|--6--3--6--4----|
Ab|--4--1--6--4----|
Db|--------6--4----|

Bridge
eb|-----------------|
Bb|-----------------|
Gb|-----------------|
Db|--3--8--4--------|
Ab|--3--8--4--------|
Db|--3--8--4--------|
And the end of the bridge goes to 1 then to 4 for that little build up and drop off 
a soft chorus..



Verse 1:

What I leave,
When you go,
What I see,
And what you show,
And what I guess,
And when I don't,
Is something you all ready, all ready know,

Chorus:
I can't live without,
All I think about,
All I want is you,
You're all I dream about,
I can't live without,
All I want is you,

Verse2:

The things I do,
I go through,
And all I see,
When Im awake,
And what I make,
The shit that I take,
Is something you all ready, all ready know

Chorus:
I can't live without,
All I think about,
All I want is you,
You're all I dream about,
I can't live without,
All I want is you,


Bridge:
Ohhh,...
Is you,
Is you,
Is you,
Is you,
You're all I dream about,
That I can't live without,
All I want is you

Chorus:
I can't live without,
All I think about,
All I want is you,
You're all I dream about,
I can't live without,
All I want is you,
I just can't live without you,
When all I think about is you,
And all I want is you
Related for All I Want tab