Song name
# A B C D E F G H I J K L M N O P Q R S T U V W X Y Z

Staind - Lost Along The Way tab

Tune 1/2 Step Down, and Drop D

Lost Along The Way
intro:
harmonics - let ring

-----------------(12)---------(12)--------------------------------------|
------------------------------------------------------------------------|
--------(7)-----------------------------(7)-----------------------------|
------------------------------------------------(7)---------------------|
------------------------------------------------------------------------|
-(7)--------------------------------------------------------------------|
play 2x

verse:
------------------------------------------------------------------------|
------------------------------------------------------------------------|
-----------9--------------9--------9--------7h9---7-------7h9---7-------|
------7--------------7---------7-------7----7---------9---7----------9--|
-9--------------9-------------------------------------------------------|
------------------------------------------------------------------------|


alright... so this is my tab
if anyone wants to finish it, great. This is an awesome song but i couldn't figure out 
chorus or the solo.
Tap to rate this tab
# A B C D E F G H I J K L M N O P Q R S T U V W X Y Z