Song name
# A B C D E F G H I J K L M N O P Q R S T U V W X Y Z

Staind - Lost Along The Way tab

Artist: Staind
Title: Lost Along The Way
Album: Illusion in Progress
Tuning:  Eb Ab Db Gb Bb eb

Guitar 1 - clean
Guitar 2 - disortion


Intro

|guitar 1	(harmonic notes)
|
|------------(12)-------|------------(12)-------|-(12)-----------------|-(12)-----------------|
|-----------------------|-----------------------|----------------------|----------------------|
|------(7)--------------|------(7)--------------|---------(7)----------|---------(7)----------|
|-----------------------|-----------------------|---------------(7)----|---------------(7)----|
|-(5)-------------------|-(5)-------------------|----------------------|----------------------|
|-----------------------|-----------------------|----------------------|----------------------|



|guitar 1
|
|----------------------|----------------------|----------------------|----------------------|
|----------------------|----------------------|----------------------|----------------------|
|-----------9----------|-----------9----------|-7h9-----7------------|-7h9-----7------------|
|------7---------------|------7---------------|-7-------------7------|-7-------------7------|
|-9--------------------|-9--------------------|----------------------|----------------------|
|----------------------|----------------------|----------------------|----------------------|
|
|
|guitar 2
|
|----------------------|----------------------|----------------------|----------------------|
|----------------------|----------------------|----------------------|----------------------|
|-----------9----------|-----------9----------|-7h9-----7------------|-7h9-----7------------|
|------7---------------|------7---------------|---------------7------|---------------7------|
|-9--------------------|-9--------------------|----------------------|----------------------|
|----------------------|----------------------|----------------------|----------------------|



|guitar 1
|
|----------------------|----------------------|----------------------|----------------------|
|----------------------|----------------------|----------------------|----------------------|
|-----------9----------|-----------9----------|-7h9-----7------------|-7h9-----7------------|
|------7---------------|------7---------------|-7-------------7------|-7-------------7------|
|-9--------------------|-9--------------------|----------------------|----------------------|
|----------------------|----------------------|----------------------|----------------------|
|
|
|guitar 2
|
|----------------------|----------------------|----------------------|----------------------|
|----------------------|-7--------------------|----------------------|----------------------|
|-----------9----------|-----9-9-----7-6------|-7h9-----7------------|-7h9-----7-----7h9----|
|------7---------------|------------------9---|---------------7----7-|----------------------|
|-9--------------------|----------------------|------------------9---|----------------------|
|----------------------|----------------------|----------------------|----------------------|





Verse 1

|guitar 1
|
|----------------------|----------------------|----------------------|----------------------|
|----------------------|----------------------|----------------------|----------------------|
|-----------9----------|-----------9----------|-7h9-----7------------|-7h9-----7------------|
|------7---------------|------7---------------|-7-------------7------|-7-------------7------|
|-9--------------------|-9--------------------|----------------------|----------------------|
|----------------------|----------------------|----------------------|----------------------|



|guitar 1
|
|----------------------|----------------------|----------------------|----------------------|
|----------------------|----------------------|----------------------|----------------------|
|-----------9----------|-----------9----------|-7h9-----7------------|-7h9-----7------------|
|------7---------------|------7---------------|-7-------------7------|-7-------------7------|
|-9--------------------|-9--------------------|----------------------|----------------------|
|----------------------|----------------------|----------------------|----------------------|
|
|
|guitar 2
|----------------------|----------------------|----------------------|----------------------|
|----------------------|----------------------|----------------------|----------------------|
|-----------9----------|-----------9----------|-7h9-----7------------|-7h9-----7------------|
|------7---------------|------7---------------|---------------7------|---------------7------|
|-9--------------------|-9--------------------|----------------------|----------------------|
|----------------------|----------------------|----------------------|----------------------|





Chorus 1 

Chords for the chorus is Ab, Eb, Fm and Db (two measure for each chord)





Pre Verse

|guitar 1
|
|----------------------|----------------------|----------------------|----------------------|
|----------------------|----------------------|----------------------|----------------------|
|-----------9----------|-----------9----------|-7h9-----7------------|-7h9-----7------------|
|------7---------------|------7---------------|-7-------------7------|-7-------------7------|
|-9--------------------|-9--------------------|----------------------|----------------------|
|----------------------|----------------------|----------------------|----------------------|
|
|
|guitar 2	(brb is bend release bend)
|
|----------------------|----------------------|----------------------|----------------------|
|-12b14----------------|----10--17b---15--14--|-12brb----10~------10-|-12----14----15~------|
|----------------------|-11-------------------|----------------11----|----------------------|
|-(bend and let ring)--|--------------------- |----------------------|----------------------|
|----------------------|----------------------|----------------------|----------------------|
|----------------------|----------------------|----------------------|----------------------|





Verse 2

|guitar 1
|
|----------------------|----------------------|----------------------|----------------------|
|----------------------|----------------------|----------------------|----------------------|
|-----------9----------|-----------9----------|-7h9-----7------------|-7h9-----7------------|
|------7---------------|------7---------------|-7-------------7------|-7-------------7------|
|-9--------------------|-9--------------------|----------------------|----------------------|
|----------------------|----------------------|----------------------|----------------------|



|guitar 1
|
|----------------------|----------------------|----------------------|----------------------|
|----------------------|----------------------|----------------------|----------------------|
|-----------9----------|-----------9----------|-7h9-----7------------|-7h9-----7------------|
|------7---------------|------7---------------|-7-------------7------|-7-------------7------|
|-9--------------------|-9--------------------|----------------------|----------------------|
|----------------------|----------------------|----------------------|----------------------|
|
|
|guitar 2 !!CLEAN!!	(not so sure about this, but it sounds OK)
|
|-12---12---12---12----|-12---12---12---12----|-14---14---14---14----|-12---12---12---12----|
|----12---12---12---12-|----12---12---12---12-|----12---12---12---12-|----12---12---12---12-|
|----------------------|----------------------|----------------------|----------------------|
|----------------------|----------------------|----------------------|----------------------|
|----------------------|----------------------|----------------------|----------------------|
|----------------------|----------------------|----------------------|----------------------|





Chorus 2 (same as chorus 1)


???Solo???

Chords for the solo is Fm and Db




Chorus 3 (same as chorus 1 and 2 only played two times and also some solo part on the back)




Outro

|guitar 1 (There is some echo effect)
|
|----------------------|----------------------|----------------------|----------------------|
|----------------------|----------------------|----------------------|----------------------|
|-----------9----------|-----------9----------|-7h9-----7------------|-7h9-----7------------|
|------7---------------|------7---------------|-7-------------7------|-7-------------7------|
|-9--------------------|-9--------------------|----------------------|----------------------|
|----------------------|----------------------|----------------------|----------------------|


|guitar 1 (There is some echo effect)
|
|-----------9----------|----------------------|----------------------|----------------------|
|----------------------|----------------------|----------------------|----------------------|
|-----------9----------|----------------------|----------------------|----------------------|
|------7---------------|----------------------|----------------------|----------------------|
|-9--------------------|----------------------|----------------------|----------------------|
|----------------------|----------------------|----------------------|----------------------|
Tap to rate this tab
# A B C D E F G H I J K L M N O P Q R S T U V W X Y Z