Song name
# A B C D E F G H I J K L M N O P Q R S T U V W X Y Z

Staind - Let It Out tab

Staind - Let It Out

Tuning - Half Step Down

Chords:

Em7      - x22033 for Verse
Em7      - 0xx033 for Chorus
Cadd9    - x32033
Dadd4/F# - 200033 or 2x0033
G        - 320033


Picking:

VERSE:

     Em7               Cadd9
Eb|-------------------------------------|
Bb|----3-----3-----3-----3-----3-----3--|
Gb|------0-----0-----------0-----0------|
Db|-------------------------------------|
Ab|--2-----2-----2-----3-----3-----3----|
Eb|-------------------------------------|

     Dadd/F#           G
Eb|-------------------------------------|
Bb|----3-----3-----3-----3-----3-----3--|
Gb|------0-----0-----------0-----0------|
Db|-------------------------------------|
Ab|-------------------------------------|
Eb|--2-----2-----2-----3-----3-----3----|


CHORUS:

     Em7               Cadd9
Eb|-------------------------------------|
Bb|----3-----3-----3-----3-----3-----3--|
Gb|------0-----0-----------0-----0------|
Db|-------------------------------------|
Ab|--------------------3-----3-----3----|
Eb|--0-----0-----0----------------------|

     Dadd/F#           G
Eb|-------------------------------------|
Bb|----3-----3-----3-----3-----3-----3--|
Gb|------0-----0-----------0-----0------|
Db|-------------------------------------|
Ab|-------------------------------------|
Eb|--2-----2-----2-----3-----3-----3----|


LAST VERSE:

     Em7               Cadd9
Eb|-------------------------------------|
Bb|----3-----3-----3-----3-----3-----3--|
Gb|------0-----0-----------0-----0------|
Db|-------------------------------------|
Ab|--2-----2-----2-----3-----3-----3----|
Eb|-------------------------------------|

     Dadd/F#           G
Eb|--------------------3--|
Bb|----3-----3-----3---3--|
Gb|------0-----0-------0--|
Db|--------------------0--|
Ab|--------------------x--|
Eb|--2-----2-----2-----3--|



VERSE 1: 

Em7            Cadd9 Dadd4/F#  G     
Theres nothing left Nothing left to hold onto

Em7            Cadd9 Dadd4/F#  G    
There is no reason for me to fight anymore

Em7            Cadd9 Dadd4/F#  G    
I let it all go It will be easier I know

Em7            Cadd9 Dadd4/F#  G    
The weight on my shoulders tells me so


CHORUS:

Em7            Cadd9 Dadd4/F#  G    
So now i stand here to sing another song for you

Em7            Cadd9 Dadd4/F#  G    
About the pain i felt before when there was nothing I could do

Em7            Cadd9 Dadd4/F#  G    
Now I stand here nothing left to say to you

Em7            Cadd9 Dadd4/F#  G    
But if you all could sing along it might help you make it thru


VERSE 2:

Em7            Cadd9 Dadd4/F#  G    
I tried to move on Nothing left to hurt me now

Em7            Cadd9 Dadd4/F#  G    
I hope its all in the past to stay

Em7            Cadd9 Dadd4/F#  G     
Just try to see thru all the fucked up shit we do

Em7            Cadd9 Dadd4/F#  G    
And hope that we all don't drift away


CHORUS:

Em7            Cadd9 Dadd4/F#  G    
So now i stand here to sing another song for you

Em7            Cadd9 Dadd4/F#  G    
About the pain i felt before when there was nothing I could do

Em7            Cadd9 Dadd4/F#  G    
Now I stand here nothing left to say to you

Em7            Cadd9 Dadd4/F#  G    
But if you all could sing along it might help you make it thru


VERSE 3:

Em7            Cadd9 Dadd4/F#  G    
So let it all out Nothing left to hold on to

Em7            Cadd9 Dadd4/F#  G    
There is no reason for me to fight anymore

Em7            Cadd9 Dadd4/F#  G     
I let it all go Feel so much better now I know

Em7            Cadd9 Dadd4/F#  G     
The weight on my shoulders tells me so


CHORUS:

Em7            Cadd9 Dadd4/F#  G    
So now i stand here to sing another song for you

Em7            Cadd9 Dadd4/F#  G    
About the pain i felt before when there was nothing I could do

Em7            Cadd9 Dadd4/F#  G    
Now I stand here nothing left to say to you

Em7            Cadd9 Dadd4/F#  G    
But if you all could sing along it might help you make it thru


OUTRO:

Em7            Cadd9 Dadd4/F#  G    
Theres nothing left None of its worth holding on to

Em7            Cadd9 Dadd4/F#  G    
There is no reason for you to fight anymore


Chords by josharnold
Tap to rate this tab
# A B C D E F G H I J K L M N O P Q R S T U V W X Y Z