Song name
# A B C D E F G H I J K L M N O P Q R S T U V W X Y Z

Staind - Layne tab

================================================================
                       Staind - Layne
================================================================
                    As recorded by Staind
            (From the 2003 album 14 Shades of Grey)

Words and Music by Staind


Tuning: (Db Ab Db Gb Bb eb) - "Drop D half a step down or 'Drob Db'"*

(I know this song is in Mike Mike Mushok's really low baritone guitar
tuning of Ab Db Ab Db Gb Bb, but this is for people who don't have
a baritone or really thick strings. Plus, you don't really need that
low Ab to play this great song.)


*For those who do not know how to tune to drop Db,
tune the low e down to d, then fret it and 1st fret
and tune it down until it sounds like a D, then 
for the A string also fret it at 1st fret and tune
it down until it sounds like an A, and so on until
all strings are tuned.


Legend:
/ - slide
x - mute
. - palm mute
h - hammer on




Intro and Verse (Repeat as needed, Clean):
eb----------------------------------------------------------------------------|
Bb----------------------------------------------------------------------------|
Gb----------------------------------------------------------------------------| 
Db-14\13-13-13-13/14-14-14-11-11-11-11-11-14\13-13-13-13/14-14-14-9-9-9-9-9---|
Ab-0-----0--0--0-----0--0--0--0--0--0--0--------------------------0-0-0-0-0---|
Db----------------------------------------------------------------------------|


Pre Chorus (1x, Clean):

eb------------------------------------------------|
Bb------------------------------------0-----0-----|
Gb--2-------2--2----------------------x-----------|
Db--5----2-----5--2--0--7-------7-----7-----------|
Ab--3----------3--------5----7--------5--7-----0--|
Db----------------------5----------7--------------|

eb------------------------------------------------------|
Bb------------------------------------0-----0-----------|
Gb--2-------2--2----------------------x------------2----|
Db--5----2-----5--2--0--7-------7-----7------------2----|
Ab--3----------3--------5----7--------5--7-----0---0----|
Db----------------------5----------7--------------------|


Chorus (4x, Heavy Distortion):

eb------------------------------------------------------------------------------------|
Bb------------------------------------------------------------------------------------|
Gb--2------2--2----2--2----2--2----5--5--4------7--------7----------------------------|
Db--2------2--2----2--2----2--2----2--2--2--0---5--------5-------0-----0--0--0--0--0--|
Ab--0------0--0----0--0----0--0----0--0--0--0---5--------5-------0-----0--0--0--0--0--|
Db----------------------------------------------5--------5----0--0-----0--0--0--0--0--|
                                                              .
*For the background fills, see bottom of page.


Then Verse

Then Pre-Chorus

Then Chorus


Bridge (4x, Heavy Distortion):

eb-------------------------------------------------------|
Bb-------------------------------------------------------|
Gb--------------------10----10--10--10--10h--12--10------|
Db--3------3--3----x--12----12--12--12--12-------12------|
Ab--3------3--3----x--10----10--10--10--10-------10---x--|
Db--3------3--3----x--10----10--10--10--10-------10---x--|


eb----------------------------------------------|
Bb----------------------------------------------|
Gb----------------------------------------------|
Db--10------10--10--9-----5--------5--7----9----|
Ab---7-------7---7--7--x--5--------5--5----5----|
Db---7-------7---7--7--x--5--------5--5----5----|

*For the background fills, see bottom of page.


Interlude (1x, Clean)

eb-------------------------------------------------------------------|
Bb-------------------------------------------------------------------|
Gb-----------------------------------------------7--------7----------|
Db--7---------7--------9----7--------10----9-----5--------5-------0--|
Ab--7------7-----7-------------7------7----7-----5--------5-------0--|
Db--7------7--------7-------------7---7----7-----5--------5----x--0--|


Then Chorus

Then Interlude


And thats it!!



Background Fills:


Chorus Fill (4x, Distortion):

eb--9------9--9----5--5----5--5--5--5--5--5--5--|
Bb----------------------------------------------|
Gb--6------6--6----2--2----2--2--2--2--2--2--2--|
Db----------------------------------------------|
Ab----------------------------------------------|
Db----------------------------------------------|

eb--10--------10--9--10--10---10----10----12----|
Bb----------------------------------------------|
Gb---7---------7--9---7---7----7-----7-----9----|
Db----------------------------------------------|
Ab----------------------------------------------|
Db----------------------------------------------|


Bridge Fill (4x, Distortion):


eb--8------8--8----8/--15----10----10--10----10--10--|
Bb---------------------------------------------------|
Gb--5------5--5----5/--12-----7-----7---7-----7---7--|
Db---------------------------------------------------|
Ab---------------------------------------------------|
Db---------------------------------------------------|

  
eb--12--10----8---10----12----10----8----8--10--10---|
Bb---------------------------------------------------|
Gb---9---7----5----7-----9-----7----5----5---7---7---|
Db---------------------------------------------------|
Ab---------------------------------------------------|
Db---------------------------------------------------|


And that's the whole tab! Please rate and comment!
Tap to rate this tab
 
# A B C D E F G H I J K L M N O P Q R S T U V W X Y Z