Staind - Nutshell Live Acoustic tab

Song: Nutshell (acoustic live)
Artist: Staind
Album: The Singles 1996-2006 (2006)
Track number: 14

--------

Tuning: Down half a step

Intro:
eb|-------3--|
Bb|------3---|
Gb|-----0----|
Db|----2-----|
Ab|---2------|
Eb|--0-------|


Chords used throughout whole song, for rhythm part:
(listen the song to find the rythm)

eb|-----3--2--0--0----|
Bb|--3--3--3--3--3----|
Gb|--0--0--2--0--0----|
Db|--2--0--0--2--0^2--|
Ab|--2--2-----3--3----|
Eb|--0--3-------------|


Verse:
Play these notes throughout the song.
Not exactly so, but gives some idea.

eb|--7-----7-----10----8---------8-----8-----8---7----------|
Bb|----8-----8------8----8---------8-----8-----5---8--------|
Gb|------9-----9-----------5---5-----5-----5---------9------|
Db|--------------------------5-------------------------9----|
Ab|---------------------------------------------------------|
Eb|---------------------------------------------------------|


Chorus solo:
eb|--12------------------------------------10---------------------|
Bb|----12------------------------------------8--------------------|
Gb|------11-12-9-----------------9-9^10-9-----7-------------------|
Db|-------------9-9/10--9-10--12---------------7^9~---------------| x2
Ab|------------------------------------------------10-9~----------|
Eb|---------------------------------------------------------------|


Ending Solo:
eb|-------------------------------------------------------------------|
Bb|-------------------------------------------------------------------|
Gb|----------------------------------7-9-7-9-12-11-9-11^12^11-9-/9-9~-|
Db|-9----------------------7-7/9-7-9----------------------------------|
Ab|--10-5-2/3--3/5-5/7-7/9--------------------------------------------|
Eb|-------------------------------------------------------------------|

eb|-------------------------------------------------------------------|
Bb|-------8-----10------12---13---15-13-12-15/17-15-13-12-13-12-------|
Gb|--7--9---9-9----9--9----9----9------------------------------12-----|
Db|-------------------------------------------------------------------|
Ab|-------------------------------------------------------------------|
Eb|-------------------------------------------------------------------|

eb|--10-----14-10-12--15-14-14-14^-12-12~~-----12-15-10---------------|
Bb|----12-----------------------------------------------12-10---------|
Gb|------12---------------------------------------------------12-9----|
Db|-------------------------------------------------------------------|
Ab|-------------------------------------------------------------------|
Eb|-------------------------------------------------------------------|

eb|-----10------------------------------------------------------------|
Bb|-/12----12-10----10/8----------------------------------------------|
Gb|--------------12------9/11-12-11-7-9-7-----------------------------|
Db|---------------------------------------10-9-10-9-7-9-10-9-5-7-5----|
Ab|-------------------------------------------------------------------|
Eb|-------------------------------------------------------------------|

                             [12]
eb|--------------------------------------7----------------------------|
Bb|------------------------------------8---7h8p7----------------------|
Gb|----------------------------------9-----------5-7-5-7p5------------|
Db|-4-5-4-5/9----------------------9-----------------------7-9-5-5/9--|
Ab|-------------10-9-7-9-10-9----7------------------------------------|
Eb|---------------------------10--------------------------------------|

[12] harmonics on 12ft fret (other guitar)

--------

Credits:

First part of ending solo was taken from:
http://www.ultimate-guitar.com/tabs/s/staind/nutshell_tab.htm
http://www.ultimate-guitar.com/tabs/s/staind/nutshell_ver2_tab.htm
Tap to rate this tab
 
# A B C D E F G H I J K L M N O P Q R S T U V W X Y Z