Staind - So Far Away tab

SO FAR AWAY BY STAIND

Tabbed by: jdoty52587
Email: jdoty52587@gmail.com

Notes: Staind loves using 1/2step down(flat) tuning. He plays this song this way 
in concerts and I have even seen him live play this. I am 110% sure its played 
this way. Any questions please email.

Tuning: Down 1/2 step

Intro
e|--------------------------------------------------|
B|-12--12--12-13--13--13-15--15--15-----------------|
G|---12--12-----12--12-----12--12--14-12-11---------|
D|--------------------------------------------------|
A|--------------------------------------------------|
E|--------------------------------------------------| \
                                                       x4
e|---------------------------------17--14-----------| /
B|-12--12--12-13--13--13-15--15--15-------15--------|
G|---12--12-----12--12-----12--12-------------------|
D|--------------------------------------------------|
A|--------------------------------------------------|
E|--------------------------------------------------|


Pre-Chorus
e|---------------------------------------------2----|
B|-12--12--12-12----12--12-12----12--12-12-----3----|
G|---12--12-------12--12-------12--12----------2----|
D|---------------------------------------------x----|
A|---------------------------------------------x----|
E|---------------------------------------------x----|

Chorus
e|-3-------|-2-------|-0-------|-0-------|
B|-3-------|-3-------|-0-------|-1-------|
G|-0-------|-2-------|-0-------|-0-------| \
D|-0-------|-0-------|-2-------|-2-------|  x4
A|-2-------|-0-------|-2-------|-3-------| /
E|-3-------|-0-------|-0-------|-3-------|

Intro 
e|--------------------------------------------------|
B|-12--12--12-13--13--13-15--15--15-----------------|
G|---12--12-----12--12-----12--12--14-12-11---------|
D|--------------------------------------------------|
A|--------------------------------------------------|
E|--------------------------------------------------| \
                                                       x2
e|---------------------------------17--14-----------| /
B|-12--12--12-13--13--13-15--15--15-------15--------|
G|---12--12-----12--12-----12--12-------------------|
D|--------------------------------------------------|
A|--------------------------------------------------|
E|--------------------------------------------------|

Pre-Chorus
e|---------------------------------------------2----|
B|-12--12--12-12----12--12-12----12--12-12-----3----|
G|---12--12-------12--12-------12--12----------2----|
D|---------------------------------------------x----|
A|---------------------------------------------x----|
E|---------------------------------------------x----|

Chorus

Bridge
e|-000--|--0--2--|--0--2--|--0--2--|--0--2--22--|
B|-000--|--1--3--|--1--3--|--1--3--|--1--3--33--|
G|-000--|--0--2--|--0--2--|--0--2--|--0--2--22--|
D|-222--|--2--0--|--2--0--|--2--0--|--2--0--00--|
A|-222--|--3--0--|--3--0--|--3--0--|--3--0--00--|
E|-000--|--3--0--|--3--0--|--3--0--|--3--0--00--|

Chorus
Tap to rate this tab
 
# A B C D E F G H I J K L M N O P Q R S T U V W X Y Z