Song name
# A B C D E F G H I J K L M N O P Q R S T U V W X Y Z

Staind - Ephiphany tab

DROP D TUNNING tune down 1/2 step c#,

THE TIMING IS NOT INCLUDED JUST LISTEN 2 DA SONG 
EMAIL ME AT jonjoneh69@batangbaler.zzn.com

E-----0--0--0---0--0--0--
B-----0--0--0---0--0--0--
G-----5--5--5---5--5--5--
D-----5--5--5---5--5--5--
A-----0--0--0---3--3--3--
D-----0--0--0---3--3--3--

chorus
 
E---0-----0--
B---0-----0--
G---9-----5--
D---9-----5--
A---7-----3--
D---7-----3--


CHORDS D-D,G-G
       Bm-Bm-G-G
Tap to rate this tab
# A B C D E F G H I J K L M N O P Q R S T U V W X Y Z