Song name
# A B C D E F G H I J K L M N O P Q R S T U V W X Y Z

Staind - Four Walls tab

This song is written on a baritone guitar, so that's how I'm going to write it out.
But you can still play it on a regular guitar, you just won't have the low B string.
Baritone Tuned: (low to high)Ab Db Ab Db Gb Bb  


Intro
              play 3 times                then play this once
Bb---------------------------------|--------------------------------
Gb---------------------------------|--------------------------------
Db--------7/8---------5------------|-----7/8---------5-----------3--
Ab--------------5h6-----5--6p5-----|-----------5h6-----5-------3----
Db------5------5-----8---8-----3---|---5------5-----8-----0--3------ 
Ab---------------------------------|--------------------------------


Verse
                                         play 4 times
Bb----------------------------------------------------------------
Gb----------------------------------------------------------------
Db--------7/8---------5----------------7/8---------5-----------3--
Ab--------------5h6-----5--6p5---------------5h6-----5-------3----
Db------5------5-----8---8-----3-----5------5-----8-----0--3------ 
Ab----------------------------------------------------------------

Chorus
                play 6 times
Bb---------------------------
Gb------12--12--12--10-------
Db------12--12--12--10-------
Ab------10--10--10--8--------
Db------10--10--10--8-------- 
Ab---------------------------


Bridge

      (bass arranged for guitar)
Bb----------------------------------------------------
Gb----------------------------------------------------
Db----------------------------------------------------
Ab---------3h5/10-8-10--------------------------------
Db------5--------------10-12--10-5----3-5-------------   
Ab-----------------------------------------3-5--0-3---
    

Dist. Guitar behind bass riff

Bb---------------------------
Gb-------10^-10^-10^-10^-----
Db----------------------10---
Ab---------------------------
Db---------------------------   
Ab---------------------------





Tap to rate this tab
# A B C D E F G H I J K L M N O P Q R S T U V W X Y Z