Staind - The Truth tab

-----------------------------------------------------------------------------
			     THE TRUTH - STAIND
-----------------------------------------------------------------------------
Tabbed by:Massacre101
Email:abel_chapter4@live.com

WELL HELLO IF YOUR READING THIS THIS 
IS A TAB I MADE OF THE SONG "THE TRUTH" 
FROM STAIND THIS VERSION IS A COMBINATION 
OF THE STUDIO VERSION AND AARON LEWIS' 
VERSION WHICH IS PLAYED ACOUSTIC. I 
USE THIS VERSION WHEN I COVER IT 
THERE IS A VIDEO ON YOUTUBE UNDER 
THE SAME EMAIL THAT CAN BE SEEN 
HOW TO PLAY ALONG WITH SINGING ENJOY HAHA 




Tuning:Half Step
Melody:
e|---------h-----------h----------------------------------------------------|
B|--------23----------23--------3-2--------3-2------------------------------|
G|----2---2--2----2---2--2---2--2--2-----2-2--2---*-------------------------|
D|--0--0-----0--0--0-----0----0-----0---0------0-----Repeat-----------------|
A|--0-----------0-----------2---------------------*-------------------------|
E|-------------------------------------3------------------------------------|
Verse:
e|-----0----0----0-----------0----------------0-----------------------------|
B|--3--3-3--3-3--3-3-3-----3-3-3---3--------3-3-3--3------------------------|
G|-2-2-2--2-2--2-2--2-----2--2---2-2--------2----2-2---*--------------------|
D|-0---0----0----0-------------------------0--------------Repeat------------|
A|----------------------2------------------------------*--------------------|
E|---------------------------------------3----------------------------------|
Chorus/Breakdown
e|------0-----------3-----------2----------------h--/-----------------------|
B|------3-----------3-3--3---3--3-3--3-----0----02-23-----------------------|
G|-4-4--4-4-4-------0--2-2-2--2----2-2--2--2-2--2--2------------------------|
D|-4--4----4-----0--0------0-----------2-2----2-2---------------------------|
A|-2-----------2--2--------0-----------0------------------------------------|
E|-------------3------------------------------------------------------------|



************************************

| /   slide up
| \   slide down
| h   hammer-on
| p   pull-off
| ~   vibrato
| +   harmonic
| x   Mute note
| b   Bend
| pb  Pre-bend
| br  Bend release
| pbr Pre-bend release
| brb Bend release bend

************************************
Tap to rate this tab
 
# A B C D E F G H I J K L M N O P Q R S T U V W X Y Z