Song name
# A B C D E F G H I J K L M N O P Q R S T U V W X Y Z

Staind - Take It tab

-------------------------------------------------------------------------------
			     Take This - Staind
-------------------------------------------------------------------------------
Tabbed by:Omar aka Staind915
Email:cowboyz915@yahoo.com

Hi guys I'm new here and this is my first tab. And the reason why I choose this song is
it's one of my favorite songs from my favorite band. And this is from their tablature
so it has to be correct. Duh! Well I hope you get it!. And Enjoy it's a really awesome 
Who cares if their going soft. They said their would like to work with lighter prettier
so let them be....You critics!

Tuning:GTR 1 (Electric)EADGBE-Standard
       GTR 2 (Baritone)ADADAD-Like really freakin low but it's their typical tuning.
Oh yeah. Since the pace of this song is kinda' slow. You'll need some major ass feed
to fill in the space where there's no sound. Delay! Delay! Delay!


  BARITONE GTR 1  Intro.

A|---------------------------------------------------------------------------|
D|----------------------------------------0----------------------------------|
A|-----0----0----------0-------------0---------------------------------------|
D|-----9-------9------10-----------------------------------------------------|
A|-----0---------------0-------0---------------------------------------------|
D|---------------------------------------------------------------------------|
(These are all each right after the other so don't stop keep going with the rythmn of 
song)
A|------------------------------------------------------------------------------|
D|----------------0-------------------------------------------------------------|
A|------------0-------------0---------------------------------------------------|
D|---------------------------------10/9-----------------------------------------|
A|-------0----------------------------------------------------------------------|
D|------------------------------------------------------------------------------|

A|---------------------------------------------------------------------------|
D|----------------------------------------------------------0----------------|
A|----7----------0----------------0--------------------0---------------------|
D|----5---------------------------9------------------------------------------|
A|----0------------------0--------0---------------0--------------------------|
D|---------------------------------------------------------------------------|
(This rythmn is still going don't stop!!!!)
A|---------------------------------------------------------------------------------|
D|----------------0----------------------------------------------------------------|
A|------------0------------0-----------0---------0-------0--------0----------------|
D|-------------------------------9---------------9----------9-----10---------------|
A|-------0---------------------------------------0----------------0----------------|
D|---------------------------------------------------------------------------------|

A|---------------------------------------------------------------------------------|
D|---------------------------------------------------------------------------------|
A|-------------0--------------------0----------------------------------------------|
D|--------0--------------------0--------------0------------------------------------|
A|-----------------------------------------------------10/9------------------------|
D|---0-------------------0---------------------------------------------------------|

A|---------------------------------------------------------------------------|
D|------------------------------------------------0--------------0-----------|
A|-------------0------------0----------------0---------------0---------------|
D|-----7------------7--------------------------------------------------------|
A|-----0--------------------0---------0----------------0---------------------|
D|---------------------------------------------------------------------------|
Pre-Verse and Pre-Chorus
A|---------------------------------------------------------------------------|
D|-------------0-------------------------------------------------------------|
A|----------0---------------0-----0------------------------------------------|
D|--------------------------------------0------------------------------------|
A|------0--------------------------------------------------------------------|
D|---------------------------------------------------------------------------|
(NOTE* There's gonna be a lot of open notes but it sounds awesome when played right so 
worry)

Repeat Intro

ELECTRIC w/Distortion *CHORUS*
(I love this part is sounds all Bad ASS!)
 (*Whenever Aaron says a long note fill in with this*)
                It would sound better if you play "17" with a vibrato but that's if you
to do it. Either way sounds great! So I'm putting it in "()". Put if not just hold the
until you hear Aaron go for another long note.
e|---------------------------------17(~)-------------------------------------|
B|------------------------15-------------------------------------------------|
G|----------------15/16--------16--------------------------------------------|
D|---------------------------------------------------------------------------|
A|---------------------------------------------------------------------------|
E|---------------------------------------------------------------------------|
>>>>>>>>REPEAT UNTIL CHORUS IS OVER<<<<<<<<<<


BARITONE w/Clean Tone *CHORUS*

A|-----------------------------0-------------0-------------------------------|
D|-----------------------------0-------------0-------------------------------|
A|-----------------------------0-------------0-------------------------------|
D|----4-4-4--5---------5---5--------5-5-5-----------5-5-0--------------------|
A|----4-4-4--5---------5---5--------5-5-5-----------5-5-0--------------------|
D|---------------------------------------------------------------------------|
Then.......
A|-----------------0------------0--------------------------------------------|
D|-----------------0------------0--------------------------------------------|
A|-----------------0------------0--------------------------------------------|
D|-7-7-7--4-4-4-4--------4-4-4---------4-4-4-0-------------------------------|
A|-7-7-7--4-4-4-4--------4-4-4---------4-4-4-0-------------------------------|
D|---------------------------------------------------------------------------|

A|------------------0---------------0----------------------------------------|
D|------------------0---------------0----------------------------------------|
A|------------------0---------------0----------------------------------------|
D|-4-4-4-5----5-5-----------5-5-5---------5-5-0------------------------------|
A|-4-4-4-5----5-5-----------5-5-5---------5-5-0------------------------------|
D|---------------------------------------------------------------------------|

A|----------------------0-----------0----------------------------------------|
D|----------------------0-----------0----------------------------------------|
A|----------------------0-----------0----------------------------------------|
D|-2-2-2-0-------0--0--------0-0-0------0-0-0-0------------------------------|
A|-2-2-2-0-------0--0--------0-0-0------0-0-0-0------------------------------|
D|---------------------------------------------------------------------------|
*REPEAT*!!!!!!!

End Of Chorus (PLAY THIS AFTER THE SECOND RUN OF THE CHORUS)
A|---------------------------0-----------------------------------------------|
D|---------------------------0-----------------------------------------------|
A|---------------------------0-----------------------------------------------|
D|---2-2-2-0------0-0--------------------------------------------------------|
A|---2-2-2-0------0-0--------------------------------------------------------|
D|---------------------------------------------------------------------------|
 Interlude
NOw this is the part where it gets good!!! The best part of the song!!!)
BARITONE GTR 1 w/ Clean Tone and tremolo effect(meaning delay but sounding way way prettier)

A|--------------------------------------------------------7------------7--------|
D|------------------------------------------------------------------------------|
A|------------------------------------------------------------------------------|
D|-----0------0-0----0-0---------------0----------------------------------------|
A|-----------------------------4---------------4--------------------------------|
D|------------------------------------------------------------------------------|

BRIDGE
THE BEST PART IT MADE ME CRY WHEN I FIRST HEARD CUZ I FELT AARON'S PAIN AND I WENT THE
SAME THING!!!!!

 *HOLD OPEN STRINGS THROUGHOUT*
A|---------0---------------0---------------------0---------------------------|
D|---------0---------------0---------------------0---------------------------|
A|---------0---------------0---------------------0---------------------------|
D|-7-7-7-------7-7-----7-----------7----7--------7---------------------------|
A|-7-7-7-------7-7-----7-----------7----7--------7---------------------------|
D|---------------------------------------------------------------------------|
(KEEP IT GOING DON'T STOP cuz then that kills the over feel of the song)
A|--------0--------------0---------------------------------------------------|
D|--------0--------------0---------------------------------------------------|
A|--------0--------------0---------------------------------------------------|
D|-9---9------9-9----9----------9--9-----9-----------------------------------|
A|-9---9------9-9----9----------9--9-----9-----------------------------------|
D|---------------------------------------------------------------------------|
(Keep going!!!!!!!)

Electric w/Distortion ( *WITH BRIDGE* )
 Play this while the Baritone is going...BOTH AT THE SAME TIME..)
e|----7----------10---10----------------------10---10------------------------|
B|---------------------------10(HOLD)----------------------------------------|
G|---------------------------------------------------------------------------|
D|---------------------------------------------------------------------------|
A|---------------------------------------------------------------------------|
E|---------------------------------------------------------------------------|

e|-----------------------------------------10-------9--12----10--------------|
B|----6/7--7--7------8\7----7--7--7--7---------------------------------------|
G|---------------------------------------------------------------------------|
D|---------------------------------------------------------------------------|
A|---------------------------------------------------------------------------|
E|---------------------------------------------------------------------------|

BARITONE (CONTINUED......)
A|------------0-------------------------0---------------------------------------|
D|------------0-------------------------0---------------------------------------|
A|------------0-------------------------0---------------------------------------|
D|---5---5-------------5---5--------5------------5--5-------5----5--------------|
A|---5---5-------------5---5--------5------------5--5-------5----5--------------|
D|------------------------------------------------------------------------------|

A|-----------0----------------------0----------------------------0-----------|
D|-----------0----------------------0----------------------------0-----------|
A|-----------0----------------------0----------------------------0-----------|
D|---0---0----------0---0-----0-----------0--0-----0----7----7--------7----7-|
A|---0---0----------0---0-----0-----------0--0-----0----7----7--------7----7-|
D|---------------------------------------------------------------------------|

A|------0--------------------------------------------------------------------|
D|------0--------------------------------------------------------------------|
A|------0--------------------------------------------------------------------|
D|--7----------7---7-------7-------------------------------------------------|
A|--7----------7---7-------7-------------------------------------------------|
D|---------------------------------------------------------------------------|


ELECTRIC w/ Distortion (*along with the above part*)
A|--9------------------------------------------------------------------------|
D|-----------------------5/7-------------------------------------------------|
A|------------4--------------------------------------------------------------|
D|---------------------------------------------------------------------------|
A|---------------------------------------------------------------------------|
D|---------------------------------------------------------------------------|

REPEAT AGAIN!!!!^^^^^^^The WHOLE BRIDGE OF BOTH GUITARS!!!!^^^^


BARITONE  GTR 1 *BRIDGE END*
A|---------------------------------------------------------------------------|
D|------------3(HOLD)--------------------------------------------------------|
A|---------------------------------------------------------------------------|
D|---------------------------------------------------------------------------|
A|---------------------------------------------------------------------------|
D|---------------------------------------------------------------------------|

BARITONE OUTRO
 *Hold open strings throughout*
A|------------------0----------------0---------------------------------------|
D|------------------0----------------0---------------------------------------|
A|------------------0----------------0---------------------------------------|
D|-2-2-2-0---0-0--------------0-0--------------------------------------------|
A|-2-2-2-0---0-0--------------0-0--------------------------------------------|
D|---------------------------------------------------------------------------|
(REPEAT)---Until Aaron says "ANYMORE"
 Then it's part.
A|--------------------------0------------------------------------------------|
D|--------------------------0------------------------------------------------|
A|--------------------------0------------------------------------------------|
D|-2-2-2-0-----0-----0-------------------------------------------------------|
A|-2-2-2-0-----0-----0-------------------------------------------------------|
D|---------------------------------------------------------------------------|

ELECTRIC GTR 1 Play the chorus until the song ends wait a whole two seconds to repeat.

LYRICS:

1st verse (INTRO)
I can't believe how far I've come,
Now watch me stumble and come undone,
If you take away these memories,
All that's left is just me,

Chorus:

Cause' I don't want this,
And I don't need this,
And I don't feel this,
It seems that even though she's with me,
I can't shake this,
And I can't fake this,
And I won't take this,
Anymore,

2nd Verse:

So you chose to break me heart,
I should have seen this from the start,
I'm haunted by your apathy,
All that's left is killing me,

Chorus:
Cause' I don't want this,
And I don't need this,
And I don't feel this,
It seems that even though she's with me,
I can't shake this,
And I can't fake this,
And I won't take this,
Anymore

Bridge:
Do you believe that the way you choose to be,
I've always had to see,
The brighter side of this so I don't lose my faith,
Now the sun has gone away,
It's getting colder everyday,
So before I free to death there's something I should say,

Chorus (OUTRO)

I don't want this,
And I don't need this,
And I don't feel this,
It seems that even though she's with me,
I still can't shake this,
And I can't fake this,
And I won't take this,
Though you say you understand,
You still won't face this,
Can't erase this,
And I won't embrace this,
Anymore.....


GREAT SONG! I hope I did it right for my first time and I hope you guys can understand
tab. Any questions feel free to e-mail me or any comments too e-mail me. peace.

| /  slide up
| \  slide down
| h  hammer-on
| p  pull-off
| ~  vibrato
| +  harmonic
| x  Mute note
===============================================================================
Tap to rate this tab
 
# A B C D E F G H I J K L M N O P Q R S T U V W X Y Z