Song name
# A B C D E F G H I J K L M N O P Q R S T U V W X Y Z

Staind - So Far Away tab

Please note that this tablature is my own work and therefore not
100% accurate. The verse is okay to me but I'm not too sure about the
chorus for guitar two and the intro, so any info would be nice
(but no BS, please). I did watch them live though. For the bridge I 
transcribed the strings to guitar cus i have no idea what guitar two 
actually plays. Sorry.

Tuning: Half Step Down (Eb Ab Db Gb Bb eb)

Riff 1

Guitar One - Clean
    Em7         Cadd9       G           D           :Fingering
    +   +   +   +   +   +   +   +   +   +   +   +
eb|-------3-----------3-----------3-----------2h3---|
Bb|-----3-----3-----3-----3-----3-----3-----3-------|
Gb|-------------------------------------------------|
Db|-------------------------------------0-----------|
Ab|-2-------2---3-------3---------------------------|
Eb|-------------------------3-------3---------------|

Guitar Two
    +   +   +   +   +   +   +   +   +   +   +   +
eb|-7---------7-8---------8-10--------10------------|
Bb|-----8---8-------8---8-------8---8---10--7-------|
Gb|-------9-----------9-----------9-------------7---|
Db|-------------------------------------------------|
Ab|-------------------------------------------------|
Eb|-------------------------------------------------|

Riff 2

Guitar One - Clean
    Em7         Cadd9       G           Dsus4       :Fingering
    +   +   +   +   +   +   +   +   +   +   +   +
eb|-3---3-3-3-3-3---3-3-3-3-3---3-3-3-3-3---3-3-3-3-|
Bb|-3---3-3-3-3-3---3-3-3-3-3---3-3-3-3-3---3-3-3-3-|
Gb|-0---0-0-0-0-0---0-0-0-0-0---0-0-0-0-2---2-2-2-2-|
Db|-2---2-2-2-2-2---2-2-2-2-0---0-0-0-0-0---0-0-0-0-|
Ab|-2---2-2-2-2-3---3-3-3-2-2---2-2-2-2-------------|
Eb|-0---0-0-0-0-0---0-0-0-0-3---3-3-3-3-------------|

Guitar Two
    +   +   +   +   +   +   +   +   +   +   +   +
eb|-7---------7-8---------8-10--------10------------|
Bb|-----8---8-------8---8-------8---8---10--7-------|
Gb|-------9-----------9-----------9-------------7---|
Db|-------------------------------------------------|
Ab|-------------------------------------------------|
Eb|-------------------------------------------------|

Riff 3

Guitar One - Clean
    Cadd9                                           :Fingering
    +   +   +   +   +   +   +   +   +   +   +   +
eb|-3---3-3-3-3-3---3-3-3-3-3---3-3-3-3-3---3-3-3-3-|
Bb|-3---3-3-3-3-3---3-3-3-3-3---3-3-3-3-3---3-3-3-3-|
Gb|-0---0-0-0-0-0---0-0-0-0-0---0-0-0-0-0---0-0-0-3-|
Db|-2---2-2-2-2-2---2-2-2-2-2---2-2-2-2-2---2-2-2-2-|
Ab|-3---3-3-3-3-3---3-3-3-3-3---3-3-3-3-3---3-3-3-3-|
Eb|-0---0-0-0-0-0---0-0-0-0-0---0-0-0-0-0---0-0-0-0-|

Guitar Two
    +   +   +   +   +   +   +   +   +   +   +   +
eb|-8---------8-8---------8-8---------8-------------|
Bb|-----8---8-------8---8-------8---8---10----------|
Gb|-------9-----------9-----------9-----------------|
Db|-------------------------------------------------|
Ab|-------------------------------------------------|
Eb|-------------------------------------------------|

Riff 4

Guitar One - Distorted
    G5                      D5                      :Fingering
    +   +   +   +   +   +   +   +   +   +   +   +
eb|-------------------------------------------------|
Bb|-------------------------------------------------|
Gb|-------------------------7---7-7-7-7-7---7-7-7-7-|
Db|-5---5-5-5-5-5---5-5-5-5-7---7-7-7-7-7---7-7-7-7-|
Ab|-5---5-5-5-5-5---5-5-5-5-5---5-5-5-5-5---5-5-5-5-|
Eb|-3---3-3-3-3-3---3-3-3-3-------------------------|

Guitar Two
    +   +   +   +   +   +   +   +   +   +   +   +
eb|-------------------------------------------------|
Bb|-------------------------------------------------|
Gb|-------------------------111111111111------------|
Db|-1212121212121414141414149-9-9-9-9-9-111111111111|
Ab|-101010101010121212121212------------9-9-9-9-9-9-|
Eb|-------------------------------------------------|

Guitar One - Distorted
    E5                      C5                      :Fingering
    +   +   +   +   +   +   +   +   +   +   +   +
eb|-------------------------------------------------|
Bb|-------------------------------------------------|
Gb|-9---9-9-9-9-9---9-9-9-9-5---5-5-5-5-5---5-5-5-5-|
Db|-9---9-9-9-9-9---9-9-9-9-5---5-5-5-5-5---5-5-5-5-|
Ab|-7---7-7-7-7-7---7-7-7-7-3---3-3-3-3-3---3-3-3-3-|
Eb|-------------------------------------------------|

Guitar Two
    +   +   +   +   +   +   +   +   +   +   +   +
eb|-------------------------------------------------|
Bb|-------------------------------------------------|
Gb|-------------------------------------------------|
Db|-1212121212121616161616169-9-9-9-9-9-7-7-7-7-7-7-|
Ab|-1010101010101414141414147-7-7-7-7-7-5-5-5-5-5-5-|
Eb|-------------------------------------------------|

Riff 5

Guitar One - Distorted
    E5          G5          C5          D5          :Fingering
    +   +   +   +   +   +   +   +   +   +   +   +
eb|-------------------------------------------------|
Bb|-------------------------------------------------|
Gb|-------------------------5---5-5-5-5-7---7-7-7-7-|
Db|-2---2-2-2-2-5---5-5-5-5-5---5-5-5-5-7---7-7-7-7-|
Ab|-2---2-2-2-2-5---5-5-5-5-3---3-3-3-3-5---5-5-5-5-|
Eb|-0---0-0-0-0-3---3-3-3-3-------------------------|

Guitar Two
    +   +   +   +   +   +   +   +   +   +   +   +
eb|-------------------------------------------------|
Bb|-------------------------------------------------|
Gb|-12--11------111211------12--11------12------14--|
Db|---------12----------12----------12------12------|
Ab|-------------------------------------------------|
Eb|-------------------------------------------------|

Riff 6

Guitar One - Distorted
    E5          G5          C5          D5          :Fingering
    +   +   +   +   +   +   +   +   +   +   +   +
eb|-------------------------------------------------|
Bb|-------------------------------------------------|
Gb|-------------------------5---5-5-5-5-7---7-7-7-7-|
Db|-2---2-2-2-2-5---5-5-5-5-5---5-5-5-5-7---7-7-7-7-|
Ab|-2---2-2-2-2-5---5-5-5-5-3---3-3-3-3-5---5-5-5-5-|
Eb|-0---0-0-0-0-3---3-3-3-3-------------------------|

Guitar Two
    +   +   +   +   +   +   +   +   +   +   +   +
eb|-------------------------------------------------|
Bb|-------------------------------------------------|
Gb|-----12--11------12--11------12--11------12--14--|
Db|-------------12----------------------12----------|
Ab|-------------------------------------------------|
Eb|-------------------------------------------------|

Riff 7

Guitar One - Distorted
    E5          G5          C5          D5          :Fingering
    +   +   +   +   +   +   +   +   +   +   +   +
eb|-------------------------------------------------|
Bb|-------------------------------------------------|
Gb|-5---5-5-5-5-7---7-7-7-7-9---9-9-9-9-11--11111111|
Db|-5---5-5-5-5-7---7-7-7-7-9---9-9-9-9-11--11111111|
Ab|-3---3-3-3-3-5---5-5-5-5-9---9-9-9-9-11--11111111|
Eb|-------------------------------------------------|

Guitar Two
    +   +   +   +   +   +   +   +   +   +   +   +
eb|-------------------------------------------------|
Bb|-------------------------------------------------|
Gb|-12--11------12--11------12--11------12------14--|
Db|---------12----------12----------12------12------|
Ab|-------------------------------------------------|
Eb|-------------------------------------------------|

Riff 8

Guitar One - Distorted
    E5          G5          C5          D5          :Fingering
    +   +   +   +   +   +   +   +   +   +   +   +
eb|-------------------------------------------------|
Bb|-------------------------------------------------|
Gb|-5---5-5-5-5-7---7-7-7-7-9---9-9-9-9-11--11111111|
Db|-5---5-5-5-5-7---7-7-7-7-9---9-9-9-9-11--11111111|
Ab|-3---3-3-3-3-5---5-5-5-5-9---9-9-9-9-11--11111111|
Eb|-------------------------------------------------|

Guitar Two
    +   +   +   +   +   +   +   +   +   +   +   +
eb|-------------------------------------------------|
Bb|-------------------------------------------------|
Gb|-----12--11------12--11------12--11------12--14--|
Db|-------------12----------------------12----------|
Ab|-------------------------------------------------|
Eb|-------------------------------------------------|

Order of Play:

Intro
Riff 1 x4

Verse
Riff 2 x4
Riff 3 x1


Pause

Chorus
Riff 4 x4

Pause

Verse  x1

Pause

Chorus x1

Pause

Bridge
Riff 5 x1
Riff 7 x1
Riff 6 x1
Riff 8 x1

Chorus x1
Fade through with 2 Riffs' worth of Cadd9

Hopefully this version adds up. The first one i did was full of blunders.
Tap to rate this tab
 
# A B C D E F G H I J K L M N O P Q R S T U V W X Y Z