Song name
# A B C D E F G H I J K L M N O P Q R S T U V W X Y Z

Staind - Please tab

Tuning, Low to High:
Ab Eb Ab Db Eb Bb

If you don't have a Baritone Guitar (Lets face it, many don't) and you can't tune 
down to this tuning, Tune to:
Eb Ab Db Eb Bb Eb

and move the riffs for this tab down a string. Change the 777 chord to a 022 chord. 

Intro Riff-

Bb|---0---------------------------------|---0--------------------------------|
Eb|--0-----0---0----0----0----0---0----0|--0-----0---0----0----0---0---0---0-|
Db|-9-----0---0----0----0----0---0----0-|-9-----0---0----0----0---0---0---0--|
Ab|-----10---9--------12---10---9-------|-----10---9--------10---9---7-------|
Eb|--------------10-----------------10--|--------------10----------------0---|
Ab|-------------------------------------|------------------------------------|

Verse

Bb|--------------------------||-0-0--0-0--0-0--0-00-0------------------------|
Eb|--------------------------||--0-0--0-0--0-0--0--0------0----0----0----0-0-|
Db|--------------------------||-------------------------0----0----0----0-----|
Ab|-7-7--777-7-777-7-777-7-77||------------------------9-9--9-9--9-9--9-9-9--|
Eb|-7-7--777-7-777-7-777-7-77||----------------------------------------------|
Ab|-7-7--777-7-777-7-777-7-77||----------------------------------------------|

Pre-Chorus

Bb|---0-------------| Play 4x
Eb|--0----0--0---0--|
Db|-9----0--0---0---|
Ab|----10--9--------|
Eb|-----------10----|
Ab|-----------------|

Chorus (Chords)

Bb|------------------------------------|    Play Pre-Verse
Eb|------------------------------------|
Db|-10--12--9-----9--10--12--9--10--12-|
Ab|-10--12--9--7--9--10--12--9--10--12-|
Eb|-8---10--7--7--7--8---10--7--8---10-|
Ab|------------7-----------------------|

Verse
Pre-Chorus
Chorus

Breakdown

Guitar 1
Bb|----------------------------------|    Repeat 3x
Eb|----------------------------------|
Db|---------------10-----------------|
Ab|-7-------------10-----------------|
Eb|-7-------------8------------------|
Ab|-7--------------------------------|

Guitar 1 Fourth time

Bb|--------------|
Eb|--------------|    
Db|-----7-----9--|
Ab|-7---7-----9--|
Eb|-7---5-----7--|
Ab|-7------------|

Guitar
Bb|----------------------------------|
Eb|-12-/15-14--10-------14/15--14-10-|
Db|-14------------10--9-----------9--|
Ab|----------------------------------| Repeat 4x
Eb|----------------------------------|
Ab|----------------------------------|

Chorus 2x

Then Play Pre-Chorus riff til end.
Tap to rate this tab
 
# A B C D E F G H I J K L M N O P Q R S T U V W X Y Z