Staind - Tangled Up In You tab

Hi there!  So I already have chords for this great song
but I'm learning to play from tabs so I did this tabbed 
version.  It is in standard tuning. It sounds really 
good (I always play along with the song), but might not 
be quite as accurate as the versions in Drop Db tuning.
But definitely worth not having to change the tuning!  
 
                 ******Have fun!!*****

Notes:
The F is not technically an F but I don't know what it's
called !
F*- This F* is different than the previous ones. It's an 
actual F (2 times in the last chorus).



Standard Tuning w/
Capo on 1

[Intro] 
             C           C           F           F
     e|-----------------------------------------------------------------|
     B|-----------------------------------------------------------------|
     G|----------0----------0-----------2------------2------------------|
     D|--------2----------2-----------0------------0--------------------| x2
     A|------3----------3-----------3------------3----------------------|
     E|----3----------3-----------3------------3------------------------|


[Verse]
            C           C               F           F  
     e|-----------------------------------------------------------------|
     B|-----------------------------------------------------------------|
     G|----------0----------0---------------2------------2--------------|
     D|--------2----------2---------------0------------0----------------|
     A|------3----------3---------------3------------3------------------|
     E|----3----------3---------------3------------3--------------------|
You're my world, The shelter from the rain          
  
            C           C               F           F  
     e|-----------------------------------------------------------------|
     B|-----------------------------------------------------------------|
     G|----------0-----------0---------------2------------2-------------|
     D|--------2-----------2---------------0------------0---------------|
     A|------3-----------3---------------3------------3-----------------|
     E|----3-----------3---------------3------------3-------------------|
You're the pills, That take away my pain

             C           C                F           F  
     e|-----------------------------------------------------------------|
     B|-----------------------------------------------------------------|
     G|----------0-----------0----------------2------------2------------|
     D|--------2-----------2----------------0------------0--------------|
     A|------3-----------3----------------3------------3----------------|
     E|----3-----------3----------------3------------3------------------|
You're the light, That helps me find my way

             C           C                F           F  
     e|-----------------------------------------------------------------|
     B|-----------------------------------------------------------------|
     G|----------0-------------0---------------2------------2-----------|
     D|--------2-------------2---------------0------------0-------------|
     A|------3-------------3---------------3------------3---------------|
     E|----3-------------3---------------3------------3-----------------|
You're the words, When I have nothing to say



[Chorus]
             Am           Am                 F            F
     e|-----------------------------------------------------------------|
     B|-----------1------------1----------------------------------------|
     G|---------2------------2-----------------2-------------2----------|
     D|-------2------------2-----------------0-------------0------------|
     A|-----0------------0-----------------3-------------3--------------|
     E|----------------------------------3-------------3----------------|
And in this world, Where nothing else is true

             Am         Am          F                
     e|-----------------------------------------------------------------|
     B|----------1---------1--------------------------------------------|
     G|--------2---------2---------------2------------------------------|
     D|------2---------2---------------0--------------------------------|
     A|----0---------0---------------3----------------------------------|
     E|----------------------------3------------------------------------|
  Here I am,   Still tangled up in you

             F               C         C           F            
     e|-----------------------------------------------------------------|
     B|-----------------------------------------------------------------|
     G|----------2-------------0-----------0------------2---------------|
     D|--------0-------------2-----------2------------0-----------------|
     A|------3-------------3-----------3------------3-------------------|
     E|----3-------------3-----------3------------3---------------------|
 I'm still tangled up in you

              F            C           C           F            F
     e|-----------------------------------------------------------------|
     B|-----------------------------------------------------------------|
     G|----------2-------------0-----------0------------2-------2-------|
     D|--------0-------------2-----------2------------0---------0-------|
     A|------3-------------3-----------3------------3-----------3-------|
     E|----3-------------3-----------3------------3---------------------|
     Still tangled up in you



[Verse]
             C           C                F           F  
     e|-----------------------------------------------------------------|
     B|-----------------------------------------------------------------|
     G|----------0----------0-----------------2------------2------------|
     D|--------2----------2-----------------0------------0--------------|
     A|------3----------3-----------------3------------3----------------|
     E|----3----------3-----------------3------------3------------------|
You're the fire, That warms me when I'm cold            
  
             C              C               F           F  
     e|-----------------------------------------------------------------|
     B|-----------------------------------------------------------------|
     G|----------0--------------0---------------2------------2----------|
     D|--------2--------------2---------------0------------0------------|
     A|------3--------------3---------------3------------3--------------|
     E|----3--------------3---------------3------------3----------------|
You're the hand I have to hold, As I grow old

             C           C            F           F  
     e|-----------------------------------------------------------------|
     B|-----------------------------------------------------------------|
     G|----------0-----------0------------2------------2----------------|
     D|--------2-----------2------------0------------0------------------|
     A|------3-----------3------------3------------3--------------------|
     E|----3-----------3------------3------------3----------------------|
You're the shore, When I am lost at sea

             C               C             F           F  
     e|-----------------------------------------------------------------|
     B|-----------------------------------------------------------------|
     G|----------0----------------0------------2------------2-----------|
     D|--------2----------------2------------0------------0-------------|
     A|------3----------------3------------3------------3---------------|
     E|----3----------------3------------3------------3-----------------|
You're the only thing, That I like about me



[Chorus]
             Am           Am              F             F
     e|-----------------------------------------------------------------|
     B|-----------1------------1----------------------------------------|
     G|---------2------------2-----------------2-------------2----------|
     D|-------2------------2-----------------0-------------0------------|
     A|-----0------------0-----------------3-------------3--------------|
     E|----------------------------------3-------------3----------------|
And in this world, Where nothing else is true

            Am         Am            F            
     e|-----------------------------------------------------------------|
     B|----------1----------1-------------------------------------------|
     G|--------2----------2---------------2-----------------------------|
     D|------2----------2---------------0-------------------------------|
     A|----0----------0---------------3---------------------------------|
     E|-----------------------------3-----------------------------------|
    Here I am,  Still tangled up in you

             F            C            
     e|-----------------------------------------------------------------|
     B|-----------------------------------------------------------------|
     G|----------2-------------0----------------------------------------|
     D|--------0-------------2------------------------------------------|
     A|------3-------------3--------------------------------------------|
     E|----3-------------3----------------------------------------------|
I'm still tangled up in you


  
[Bridge]
             F          C                G            Am          
     e|-----------------------------------------------------------------|
     B|---------------------------------------------------1-------------|
     G|----------2-----------0----------------0---------2---------------|
     D|--------0-----------2----------------0---------2-----------------|
     A|------3-----------3----------------2---------0-------------------|
     E|----3-----------3----------------3-------------------------------|
       How long has it been, Since this storyline began

             F             C                  G            G  
     e|-----------------------------------------------------------------|
     B|-----------------------------------------------------------------|
     G|----------2-------------0-------------------0----------0---------|
     D|--------0-------------2-------------------0----------0-----------|
     A|------3-------------3-------------------2----------2-------------|
     E|----3-------------3-------------------3----------3---------------|
     And I hope it never ends, And goes like this forever



[Chorus]
             Am          Am                F            F
     e|-----------------------------------------------------------------|
     B|-----------1------------1----------------------------------------|
     G|---------2------------2-----------------2-------------2----------|
     D|-------2------------2-----------------0-------------0------------|
     A|-----0------------0-----------------3-------------3--------------|
     E|----------------------------------3-------------3----------------|
And in this world, Where nothing else is true

             Am         Am           F*
     e|-----------------------------------------------------------------|
     B|----------1----------1-------------1-----------------------------|
     G|--------2----------2-------------2-------------------------------|
     D|------2----------2-------------3---------------------------------|
     A|----0----------0-------------3-----------------------------------|
     E|-----------------------------------------------------------------|
    Here I am,  Still tangled up in you

              F*             C           C          F
     e|-----------------------------------------------------------------|
     B|------------1----------------------------------------------------|
     G|----------2---------------0-----------0------------2-------------|
     D|--------3---------------2-----------2------------0---------------|
     A|------3---------------3-----------3------------3-----------------|
     E|--------------------3-----------3------------3-------------------|
             Tangled up in you

             F            C           C            F
     e|-----------------------------------------------------------------|
     B|-----------------------------------------------------------------|
     G|----------2-------------0-----------0------------2---------------|
     D|--------0-------------2-----------2------------0-----------------|
     A|------3-------------3-----------3------------3-------------------|
     E|----3-------------3-----------3------------3---------------------|
 I'm still tangled up in you

           F                C
     e|-----------------------------------------------------------------|
     B|------------------------------1----------------------------------|
     G|----------2----------------0-------------------------------------|
     D|--------0---------------2----------------------------------------|
     A|------3--------------3-------------------------------------------|
     E|----3-------------3----------------------------------------------|
     Still tangled up in you



Man! I really love this song!!
LOL! Have fun and RATE:)
Tap to rate this tab
 
# A B C D E F G H I J K L M N O P Q R S T U V W X Y Z