Song name
# A B C D E F G H I J K L M N O P Q R S T U V W X Y Z

Staind - Cant Believe tab

Mike Mushok plays with a baritone guitar its tuned very low. Good Luck

intro play 4 times
B:----------------------------------------------
G:----------------------------------------------
D:----------------------------------------------
A:-10--x-x-x--6---6--8----/10--10--13--13--13---
E:-8---x-x-x--8---8--8----/11--11--11--11--11---
B:-6---x-x-x--6---6--6----/9---9---9---9---9----

B:----------------------------------------------
G:-12------8h10---------12-------13------15-----
D:----10--------10---------13-------------------
A:-------8---------8----------11-----11---------
E:----------------------------------------------
B:----------------------------------------------
then
B:----------------------------------------------
G:-12------8h10---------12-------13-------------
D:----10--------10---------13-------------------
A:-------8---------8----------11----------------
E:----------------------------------------------
B:----------------------------------------------
chorus figure out the rythem your self
B:----------------------------------------------
G:----------------------------------------------
D:----------------------------------------------
A:------6----5----------------------------------
E:-3----4----3----------------------------------
B:-1----4----3----------------------------------

/ = is slide 
H = Hammer on 
Like many other people this is my first tab. the whole song is here you just
have to put it together. The best way to figure out the song is listen to the
unplugged version. Have fun!!!
Tap to rate this tab
# A B C D E F G H I J K L M N O P Q R S T U V W X Y Z