Song name
# A B C D E F G H I J K L M N O P Q R S T U V W X Y Z

Staind - See Thru tab

Band: Staind
Song: See Thru
Album: Tormented (1996)
Tuning: Db Ab Db Gb Bb Eb


I'm probably the first one to figure out how to play this song correctly.

** the bended harmonics are not ARTIFICIAL! They are TAPPED! **
The trick is, tap the 19th hamonic at the same time you bend the 7th fret of the Gb string.


Intro/Chorus
Eb |-------------------------------|--------------------------------------------|
Bb |-------------------------------|--------------------------------------------|
Gb |-------------------------------|-------------------7b(19*)-7b(19*)-7b(19*)--|
Db |--3p2-0-0-2-0-2-0-2-3-2-0-2-0--|--3p2-0-0-2-0-2-----------------------------|
Ab |--3p2-0-0-2-0-2-0-2-3-2-0-2-0--|--3p2-0-0-2-0-2-0---------------------------|
Db |--3p2-0-0-2-0-2-0-2-3-2-0-2-0--|--3p2-0-0-2-0-2-0---------------------------|
          . .   .   . . . . . . .         . .   .   

Verse
Eb |-------------------------------|------------------------------------|
Bb |-------------------------------|------------------------------------|
Gb |-------------------------------|-------------------7b(19*)-7b(19*)--|
Db |--2-3-2-0-2-2-0-2--------------|--2-3-2-0-2-2-0-2-------------------|
Ab |--2-3-2-0-2-2-0-2--------------|--2-3-2-0-2-2-0-2-------------------|
Db |--2-3-2-0-2-2-0-2--------------|--2-3-2-0-2-2-0-2-------------------|
      . . . . . . . .                 . . . . . . . .

Pre-Chorus
Eb |-------------------|
Bb |-------------------|
Gb |-------------------|
Db |--2/3-----3h5------|
Ab |--2/3-----3h5------|
Db |--2/3-0-0-3h5-0-0--|
          . .     . .

Bridge (Slight Distorted)
Eb |--------------------------------------------|
Bb |--(3)---------------------------------------|
Gb |--(2)----2p0-------2------------------------|
Db |--(0)--------0---0----------3-3-------------|
Ab |--(0)--3-------3--------2h3---2--3-0-0-3-5--|
Db |--(0)-----------------0----------3-0-0-3-5--|
                 . . .                 . .
Bridge (Distorted)
Eb |-----------------|-------------------|---------------------------|
Bb |-----------------|-------------------|---------------------------|
Gb |-----------------|-------------------|---------------------------|
Db |--(0)-3-----3-5--|--x-7-x-x-7-x-7-x--|--12-12-12-12-12-12-12-12--|
Ab |--(0)-3-----3-5--|--x-5-x-x-5-x-5-x--|--12-12-12-12-12-12-12-12--|
Db |--(0)-3-0-0-3-5--|--0-0-0-0-0-0-0-0--|--12-12-12-12-12-12-12-12--|
       .    . .         .   . .   .   .  

Ending
Eb |-------------------|-----------|
Bb |-------------------|-----------|
Gb |-------------------|-----------|
Db |--2/3-0-0-3h5-0-0--|--2-3-2-5--|
Ab |--2/3-0-0-3h5-0-0--|--2-3-2-5--|
Db |--2/3-0-0-3h5-0-0--|--2-3-2-5--|
          . .     . .     . . . .
          
Tap to rate this tab
 
# A B C D E F G H I J K L M N O P Q R S T U V W X Y Z