Song name
# A B C D E F G H I J K L M N O P Q R S T U V W X Y Z

Staind - Something To Remind Me tab

-------------------------------------------------------------------------------
			     Something To Remind You - Staind
			     From their self-titled album released on 9/13/11
-------------------------------------------------------------------------------
Tabbed by: Griffin737


Tuning: Standard (capo on first fret is optional but may help)
Key: Bb minor

INTRO/VERSE ~0:00 (3X)
e|---------------------------------------------------------------------------|
B|-----6---6---6-------6---6---6------4---4---4-------4---4---4--------------|
G|-------6---6-----------6---6----------6---6-----------6---6----------------|
D|-8---------------8---------------6--------------6--------------------------|
A|---------------------------------------------------------------------------|
E|---------------------------------------------------------------------------|

e|-------------------------------------------------|-------------------------|
B|-----7---7---7-------7---7---7-------4---4---4---|--6----------------------|
G|-------6---6-----------6---6-----------5---5-----|-------8-----6-----5-----|
D|-4---------------4---------------3---------------|-------------------------|
A|-------------------------------------------------|-------------------------|
E|-------------------------------------------------|-------------------------|
                                 		    Play this first 2X only


e|-------------------------|
B|-------4---4---4---------|
G|---------5---5-----------|
D|---3---------------------|
A|-------------------------|
E|-------------------------|
  3rd time, play this again



PRE-CHORUS ~ 0:45
e|---------------------------------------------------------------------------|
B|-----7---7---7-------7---7---7---------------------------------------------|
G|-------6---6-----------6---6----------6---6---6--------6---6---6-----------|
D|-4----------------4---------------------6---6------------6---6-------------|
A|---------------------------------4-----------------4-----------------------|
E|---------------------------------------------------------------------------|

e|---------------------------------------------------------------------------|
B|---------------------------------------4---4---4----6----------------------|
G|-----3---3---3-------3---3---3-----------5---5-----------8----6----5-------|
D|-------4---4-----------4---4-------3---------------------------------------|
A|-6---------------6---------------------------------------------------------|
E|---------------------------------------------------------------------------|



CHORUS ~ 1:05 (X2) (I'm not 100% sure about this section)
e|---------------------------------------------------------------------------|
B|---------1------2-----2---2-1------------2-----2-----2---2-1---------------|
G|-------3-----------------------------1-------1-----1---1-----1-------------|
D|-----3-------3------3---3--------------1-----------------------------------|
A|-1-------------------------------------------------------------------------|
E|---------------------------------4-----------------------------------------|

e|--------------------------------|------------------------------------------|
B|---------------2-----2---2-1----|---------2-----2-----2---2-1--------------|
G|-----1---3---------1---1-----3--|-----1-------1-----1---1-----1------------|
D|-------4---4--------------------|-------1----------------------------------|
A|-------------4------------------|------------------------------------------|
E|-2------------------------------|-4----------------------------------------|
				   Play this first time only


e|-----------------------|
B|----------2------------|
G|------1----------------|
D|--------1-----4--------|
A|--------------4--------|
E|--4-----------2--------|
  2nd time, play this instead



VERSE 2: GUITAR 1 PLAYS VERSE 1 (3X), GUITAR 2 PLAYS THIS 1X ~ 1:35
e|------6---6---6-----6---9----8--------------------------9---8--------------|
B|-/6-----6---6---6-----6---------------9---9---9-----9----------------------|
G|---------------------------------/8-----8---8---8-----8--------------------|
D|---------------------------------------------------------------------------|
A|---------------------------------------------------------------------------|
E|---------------------------------------------------------------------------|

e|-------------------------9---8----------------------9---8---6--------------|
B|------7---7---7------7----------------6---6---6-----------------9----------|
G|-/6-----6---6---6------6---------/5-----5---5------------------------------|
D|---------------------------------------------------------------------------|
A|---------------------------------------------------------------------------|
E|---------------------------------------------------------------------------|



GUITAR 1 PLAYS PRE-CHORUS (1X) ~ 2:21

GUITAR 1 PLAYS CHORUS (X2) ~2:40



SOLO:

GUITAR 1 PLAYS VERSE 1 (1X) ~ 3:11 , GUITAR 2 PLAYS THIS 1X
e|--------------------------------------------/6-6-6-6-----------------------|
B|-----------------------------------------------------9-9-7-7h9---7---6---7-|
G|--------------------6-8-8b10r8---8-----------------------------------------|
D|----------(3:13)-/8------------8-------------------------------------------|
A|---------------------------------------------------------------------------|
E|---------------------------------------------------------------------------|

e|--8b9-8b9-9pbr8-6-8---8b9---9-8-6-------------|
B|----------------------------------9b11--------|
G|----------------------------------------------|
D|----------------------------------------------|
A|----------------------------------------------|
E|----------------------------------------------|



GUITAR 1 PLAYS VERSE 1 (2X, first ending) ~3:26


END ON
e|--1~~~---|
B|--2~~~---|
G|--3~~~---|
D|---------|
A|---------|
E|---------|




************************************

| /   slide up
| \   slide down
| h   hammer-on
| p   pull-off
| ~   vibrato
| +   harmonic
| x   Mute note
| b   Bend
| pb  Pre-bend
| br  Bend release
| pbr Pre-bend release
| brb Bend release bend

************************************
Tap to rate this tab
 
# A B C D E F G H I J K L M N O P Q R S T U V W X Y Z