Song name
# A B C D E F G H I J K L M N O P Q R S T U V W X Y Z

Staind - Not Again tab

( - arppeggio
. - PM
/ - slide up
\ - slide down
b - full bend
b.5 - half step bend
pb.5 - pre half step bend
p - pull off
h - hammer on

Tuning: Drop Db

Intro (clean)
---------------------|
---------------------|
-----------0---(0-0--|
---0--0--0--0--(0--0-|
-0--0--0-1---1-(1----|
-0---0---------------|

Intro (dist.)
-------------------|
-------------------|
-------------------|
-10-10-10-10-8-5-0-|
-10-10-10-10-8-5-0-|
-10-10-10-10-8-5-0-|

----------------------------------------|
----------------------------------------|
----------------------------------------|
---0---------0-----0---0---------0---10-|
---0-1-1-1-1-0-1---0---0-1-1-1-1-0-1-10-|
---0-1-1-1-1-0-1---0---0-1-1-1-1-0-1-10-|
     . . . .   .         . . . .   .

-------------------------------------|
-------------------------------------|
-------------------------------------|
---10------10---10-10-10-10-10-8-5-8-|
-----10--10--10-10-10-10-10-10-8-5-8-|
-------10--------9-10-10-10-10-8-5-8-|

Chorus
----------------------------|
----------------------------|
----------------------------|
---8-8-10-9---------------0-|
---8-8-10-9---9-9-9-9-9-9-0-|
---8-8-10-9---9-9-9-9-9-9-0-|
              . . . . . .

-----------------------------------------|
-----------------------------------------|
-----------------------------------------|
---0-----0-----0---0-----0-<2.8>-<2.8>-8-|
---0-0-0-0-0-0-0---0-0-0-0-------------8-|
---0-0-0-0-0-0-0---0-0-0-0-------------8-|
     . .   . .       . .

----------------------------|
----------------------------|
----------------------------|
---8-8-10-9-----------------|
---8-8-10-9---9-9-9-9-9-9-9-|
---8-8-10-9---9-9-9-9-9-9-9-|
              . . . . . . .

---------|---------|
---------|---------|
---------|---------|
-0-------|---------|
-0-------|---------|
-0-------|---------|

Solo 1
-------------------|--------------------|
---5-5-4-----------|---5-5-4------------|
-/6-6---6-6/13---\-|-/6-6---6-4-6-4---\-|
-------------------|--------------------|
-------------------|--------------------|
-------------------|--------------------|

--------------------------|---------------------------|
-----5-5-4----------------|-12b-12-9------------------|
---/6-6---6-6/13-11-13b.5-|---------11p9--11b-11-9--9-|
--------------------------|-------------11--------11--|
--------------------------|---------------------------|
--------------------------|---------------------------|

-----------------------|-------------------------------|
-----------------------|----9-12-12-12b-12-10-9-12---/-|
---9-9-9-9p8--8--------|---9-9--9----------------------|
------------11-9--9/11-|-------------------------------|
----------------11-----|-------------------------------|
-----------------------|-------------------------------|

   hold bend
---14b-14-14-14r-12-11-12p11----------------|
----------------------------14p12-12/14---\-|
--------------------------------------------|
--------------------------------------------|
--------------------------------------------|
--------------------------------------------|

---11b.5-11-14-12-14-14-14/16\------|
------------------------------16h17-|
------------------------------------|
------------------------------------|
------------------------------------|
------------------------------------|
sorry, I couldn't figure out the fast part, even slowed down. :(

Solo 2
 hold bend
-------------------------------|
-7b.5-7-7-7-7r\-7b.5-7-7-7-7r\-|
-7b---7-7-7-7r\-7b---7-7-7-7r\-|
-------------------------------|
-------------------------------|
-------------------------------|

--------------------------------------|
-----------------------12p10p9--------|
-----------11p9p8-------------12p10p9-|
-9p7p6-----------11p9p8---------------|
------9p7p6---------------------------|
--------------------------------------|

-14p12p11--------16p14p12------|
---------14p12p11--------16p15-|
-------------------------------|
-------------------------------|
-------------------------------|
-------------------------------|

-19p17p16--------------16h17h19-|
---------19p17p16h17h19---------|
--------------------------------|
--------------------------------|
--------------------------------|
--------------------------------|

 hold bend
-19b-19-19-19-19r-16-------------|
--------------------17-16-17-17b-|
---------------------------------|
---------------------------------|
---------------------------------|
---------------------------------|

-------------------14b-14-12-11-12--11---|
-16b.5-pb.516-16-14---------------14--12-|
-----------------------------------------|
-----------------------------------------|
-----------------------------------------|
-----------------------------------------|

Enjoy!
Tap to rate this tab
# A B C D E F G H I J K L M N O P Q R S T U V W X Y Z