Song name
# A B C D E F G H I J K L M N O P Q R S T U V W X Y Z

Staind - Something To Remind You tab

Staind - "Something to Remind You"

/ - slide up
\ - slide down
h - hammer-on
p - pull-off
b.5 - half step bend
pb.5 - pre-half step bend
r - release bend
( - arpeggio

Tuning: Eb-Ab-Db-Gb-Bb-Eb

Intro/Verse/Solo Rhythm (clean tone)
---------------|--------------|
---7-7-7-7-7-7-|--5-5-5-5-5-5-|
----7-7---7-7--|---7-7---7-7--|
-/9-----9------|-7-----7------|
---------------|--------------|
---------------|--------------|

--------------|---------------|
--8-8-8-8-8-8-|--5-5-5-7-5----|
---7-7---7-7--|---6-6-----7-6-|
-5-----5------|-4-------------|
--------------|---------------|
--------------|---------------|

Pre-Chorus
--------------|--------------|
--8-8-8-8-8-8-|--------------|
---7-7---7-7--|--7-7-7-7-7-7-|
-5-----5------|---7-7---7-7--|
--------------|-5-----5------|
--------------|--------------|

--------------|--------------------|
--------------|--------------------|
--4-4-4-4-4-4-|--9--9--9-11-9------|
---5-5---5-5--|---11-11------12-11-|
-7-----7------|-9------------------|
--------------|--------------------|

Chorus
I'm not really sure how to play this correctly, but this is how I play it.
-----------------|-----------------|
---2-3-3-3-3p2-2-|---0-3-3-3-3p2-2-|
--4----4-4-4-----|--2----2-2-2-----|
----4-----4------|----2-----2------|
-2---------------|-0--0------------|
-----------------|-----------------|

                   first time
------------------|-----------------|
--------3-3-3p2-2-|---0-3-3-3-3p2-2-|
--0-2-2--2-2------|--2----2-2-2-----|
---0---0----------|----2------------|
------------------|-0--0------------|
-3----------------|-----------------|

second time
------------|
---0--------|
--2---------|
----2-------|
-0--0-5-----|
------3-----|

Solo 1 (slight dist.)
---7-7-7-10-9\-|----------10-9\-|
-/7---7--------|--10-10-10------|
---------------|-9-----9--------|
---------------|----------------|
---------------|----------------|
---------------|----------------|

-------10-9-|-----10-9-7---|-7-------|
--8-8-8-----|--7-7------10-|---------|
-7---7------|-6------------|---------|
------------|--------------|---------|
------------|--------------|---------|
------------|--------------|---------|

Solo 2 (slight dist.)
--------------------|---------------------------|
--------------------|------/12-12-12-12p10-10---|
---------7-9-9br-7--|-7----------------------12-|
-/9-----9---------9-|---------------------------|
--------------------|---------------------------|
--------------------|---------------------------|

----------------|
----------------|
-12h14-12-11-12-|
----------------|
----------------|
----------------|

------------------------------------------------|
-14h15-14h15p14-12-14-14b.5-pb.514r(14)-12------|
------------------------------------------14/16-|
------------------------------------------------|
------------------------------------------------|
------------------------------------------------|

Last Chord
----|
-(7-|
-(7-|
-(9-|
----|
----|
Tap to rate this tab
# A B C D E F G H I J K L M N O P Q R S T U V W X Y Z