Song name
# A B C D E F G H I J K L M N O P Q R S T U V W X Y Z

Staind - Something To Remind You tab

Staind - Something To Remind You

Tabbed by Jonas Apelgren, Stockholm, Sweden

Tuning: Eb Bb Gb Db Ab Db

Intro

Guitar I
Eb|---------------|---------------|---------------|---------------|
Bb|----7---7---7--|----7---7---7--|----5---5---5--|----5---5---5--|
Gb|------7---7----|------7---7----|------7---7----|------7---7----|
Db|-9-------------|-9-------------|-7-------------|-7-------------|
Ab|---------------|---------------|---------------|---------------|
Db|---------------|---------------|---------------|---------------|

Eb|---------------|---------------|---------------|---------------|
Bb|----8---8---8--|----8---8---8--|----5---5---5--|-7---5---------|
Gb|------7---7----|------7---7----|------6---6----|---------7---6-| 
Db|-5-------------|-5-------------|-4-------------|---------------|
Ab|---------------|---------------|---------------|---------------|
Db|---------------|---------------|---------------|---------------|


Verse I

Guitar I
Eb|---------------|---------------|---------------|---------------|
Bb|----7---7---7--|----7---7---7--|----5---5---5--|----5---5---5--|
Gb|------7---7----|------7---7----|------7---7----|------7---7----|
Db|-9-------------|-9-------------|-7-------------|-7-------------|
Ab|---------------|---------------|---------------|---------------|
Db|---------------|---------------|---------------|---------------|

Eb|---------------|---------------|---------------|---------------|
Bb|----8---8---8--|----8---8---8--|----5---5---5--|-7---5---------|
Gb|------7---7----|------7---7----|------6---6----|---------7---6-| 
Db|-5-------------|-5-------------|-4-------------|---------------|
Ab|---------------|---------------|---------------|---------------|
Db|---------------|---------------|---------------|---------------|

Eb|---------------|---------------|---------------|---------------|
Bb|----7---7---7--|----7---7---7--|----5---5---5--|----5---5---5--|
Gb|------7---7----|------7---7----|------7---7----|------7---7----|
Db|-9-------------|-9-------------|-7-------------|-7-------------|
Ab|---------------|---------------|---------------|---------------|
Db|---------------|---------------|---------------|---------------|

Eb|---------------|---------------|---------------|---------------|
Bb|----8---8---8--|----8---8---8--|----5---5---5--|----5---5---5--|
Gb|------7---7----|------7---7----|------6---6----|------6---6----|
Db|-5-------------|-5-------------|-4-------------|-4-------------|
Ab|---------------|---------------|---------------|---------------|
Db|---------------|---------------|---------------|---------------|


Pre-Chorus I

Guitar 1
Eb|---------------|---------------|---------------|---------------|
Bb|----8---8---8--|----8---8---8--|----3---3---3--|----3---3---3--|
Gb|------7---7----|------7---7----|------2---2----|------2---2----|
Db|-5-------------|-5-------------|-0-------------|-0-------------|
Ab|---------------|---------------|---------------|---------------|
Db|---------------|---------------|---------------|---------------|

Eb|---------------|---------------|---------------|---------------|
Bb|---------------|---------------|----5---5---5--|-7---5---------|
Gb|----4---4---4--|----4---4---4--|------6---6----|---------7---6-|
Db|------5---5----|------5---5----|-4-------------|---------------|
Ab|-7-------------|-7-------------|---------------|---------------|
Db|---------------|---------------|---------------|---------------|


Chorus I

Guitar I
Eb|---------------|---------------|---------------|---------------|
Bb|---------------|---------------|---------------|---------------|
Gb|---------------|---------------|---------------|---------------|
Db|------11----12-|-12---12--11---|-------9----12-|-12---12--11---|
Ab|----9----9-----|----9--------9-|----7-----7----|----7--------7-|
Db|-9-------------|---------------|-7-------------|---------------|

Eb|---------------|---------------|---------------|---------------|
Bb|---------------|---------------|---------------|---------------|
Gb|-------------7-|-7------7------|---------------|---------------|
Db|-----5---7-----|---7------7----|-------9----12-|-12---12--11---|
Ab|---5---5----5--|-----5------5--|----7-----7----|----7--------7-|
Db|-5-------------|---------------|-7-------------|---------------|

Eb|---------------|---------------|---------------|---------------|
Bb|---------------|---------------|---------------|---------------|
Gb|---------------|---------------|---------------|---------------|
Db|------11----12-|-12---12--11---|-----7---9-  12|---12--12/11\7-|
Ab|----9----9-----|----9--------9-|---7---7---7---|-7---7---------|
Db|-9-------------|---------------|-7-------------|---------------|

Eb|---------------|---------------|---------------|---------------|
Bb|---------------|---------------|---------------|---------------|
Gb|-------------7-|-7------7------|---------------|---------------|
Db|-----5---7-----|---7------7----|-------9----12-|-12---12--11---|
Ab|---5---5----5--|-----5------5--|----7-----7----|----7--------7-|
Db|-5-------------|---------------|-7-------------|---------------|


Solo I

Guitar I
Eb|---------------|---------------|---------------|---------------|
Bb|----7---7---7--|----7---7---7--|----5---5---5--|----5---5---5--|
Gb|------7---7----|------7---7----|------7---7----|------7---7----|
Db|-9-------------|-9-------------|-7-------------|-7-------------|
Ab|---------------|---------------|---------------|---------------|
Db|---------------|---------------|---------------|---------------|

Eb|---------------|---------------|---------------|---------------|
Bb|----8---8---8--|----8---8---8--|----5---5---5--|-7---5---------|
Gb|------7---7----|------7---7----|------6---6----|---------7---6-| 
Db|-5-------------|-5-------------|-4-------------|---------------|
Ab|---------------|---------------|---------------|---------------|
Db|---------------|---------------|---------------|---------------|


Guitar II
Eb|----|---------------|---------------|---------------|---------------|
Bb|----|----12-12------|-12--15--14----|---------------|-------15--14--|
Gb|-9s=|=11---------11-|---------------|----14-14------|---14----------|
Db|----|---------------|---------------|-14----------14|---------------|
Ab|----|---------------|---------------|---------------|---------------|
Db|----|---------------|---------------|---------------|---------------|

Eb|---------------|---------------|---------------|---------------|----|
Bb|---------------|---------------|---------------|-15--14--------|----|
Gb|----12-12------|-12-15-14------|----11-11------|---------16--14|-16-|
Db|-12----------12|---------------|11-------------|---------------|----|
Ab|---------------|---------------|---------------|---------------|----|
Db|---------------|---------------|---------------|---------------|----|


Verse II

Guitar I
Eb|---------------|---------------|---------------|---------------|
Bb|----7---7---7--|----7---7---7--|----5---5---5--|----5---5---5--|
Gb|------7---7----|------7---7----|------7---7----|------7---7----|
Db|-9-------------|-9-------------|-7-------------|-7-------------|
Ab|---------------|---------------|---------------|---------------|
Db|---------------|---------------|---------------|---------------|

Eb|---------------|---------------|---------------|---------------|
Bb|----8---8---8--|----8---8---8--|----5---5---5--|-7---5---------|
Gb|------7---7----|------7---7----|------6---6----|---------7---6-| 
Db|-5-------------|-5-------------|-4-------------|---------------|
Ab|---------------|---------------|---------------|---------------|
Db|---------------|---------------|---------------|---------------|

Eb|---------------|---------------|---------------|---------------|
Bb|----7---7---7--|----7---7---7--|----5---5---5--|----5---5---5--|
Gb|------7---7----|------7---7----|------7---7----|------7---7----|
Db|-9-------------|-9-------------|-7-------------|-7-------------|
Ab|---------------|---------------|---------------|---------------|
Db|---------------|---------------|---------------|---------------|

Eb|---------------|---------------|---------------|---------------|
Bb|----8---8---8--|----8---8---8--|----5---5---5--|----5---5---5--|
Gb|------7---7----|------7---7----|------6---6----|------6---6----|
Db|-5-------------|-5-------------|-4-------------|-4-------------|
Ab|---------------|---------------|---------------|---------------|
Db|---------------|---------------|---------------|---------------|


Pre-Chorus II

Guitar 1
Eb|---------------|---------------|---------------|---------------|
Bb|----8---8---8--|----8---8---8--|----3---3---3--|----3---3---3--|
Gb|------7---7----|------7---7----|------2---2----|------2---2----|
Db|-5-------------|-5-------------|-0-------------|-0-------------|
Ab|---------------|---------------|---------------|---------------|
Db|---------------|---------------|---------------|---------------|

Eb|---------------|---------------|---------------|---------------|
Bb|---------------|---------------|----5---5---5--|-7---5---------|
Gb|----4---4---4--|----4---4---4--|------6---6----|---------7---6-|
Db|------5---5----|------5---5----|-4-------------|---------------|
Ab|-7-------------|-7-------------|---------------|---------------|
Db|---------------|---------------|---------------|---------------|


Chorus II

Guitar I
Eb|---------------|---------------|---------------|---------------|
Bb|---------------|---------------|---------------|---------------|
Gb|---------------|---------------|---------------|---------------|
Db|------11----12-|-12---12--11---|-------9----12-|-12---12--11---|
Ab|----9----9-----|----9--------9-|----7-----7----|----7--------7-|
Db|-9-------------|---------------|-7-------------|---------------|

Eb|---------------|---------------|---------------|---------------|
Bb|---------------|---------------|---------------|---------------|
Gb|-------------7-|-7------7------|---------------|---------------|
Db|-----5---7-----|---7------7----|-------9----12-|-12---12--11---|
Ab|---5---5----5--|-----5------5--|----7-----7----|----7--------7-|
Db|-5-------------|---------------|-7-------------|---------------|

Eb|---------------|---------------|---------------|---------------|
Bb|---------------|---------------|---------------|---------------|
Gb|---------------|---------------|---------------|---------------|
Db|------11----12-|-12---12--11---|-----7---9-  12|---12--12/11\7-|
Ab|----9----9-----|----9--------9-|---7---7---7---|-7---7---------|
Db|-9-------------|---------------|-7-------------|---------------|

Eb|---------------|---------------|---------------|---------------|
Bb|---------------|---------------|---------------|---------------|
Gb|-------------7-|-7------7------|---------------|---------------|
Db|-----5---7-----|---7------7----|-------9----12-|-12---12--11---|
Ab|---5---5----5--|-----5------5--|----7-----7----|----7--------7-|
Db|-5-------------|---------------|-7-------------|---------------|


Solo II

Guitar I
Eb|---------------|---------------|---------------|---------------|
Bb|----7---7---7--|----7---7---7--|----5---5---5--|----5---5---5--|
Gb|------7---7----|------7---7----|------7---7----|------7---7----|
Db|-9-------------|-9-------------|-7-------------|-7-------------|
Ab|---------------|---------------|---------------|---------------|
Db|---------------|---------------|---------------|---------------|

Eb|---------------|---------------|---------------|---------------|
Bb|----8---8---8--|----8---8---8--|----5---5---5--|-7---5---------|
Gb|------7---7----|------7---7----|------6---6----|---------7---6-| 
Db|-5-------------|-5-------------|-4-------------|---------------|
Ab|---------------|---------------|---------------|---------------|
Db|---------------|---------------|---------------|---------------|


Guitar II
Eb|-|-------------------------------|-----------------------------|
Bb|-|-------------------------------|-----------------------------|
Gb|-|-------------------------------|----------9--9b--------------|
Db|7|(7)/9~~~~~~~~~~~~~~~~~~~~~~~~~~|-9h12---------------12--9h12~|
Ab|-|-------------------------------|-----------------------------|
Db|-|-------------------------------|-----------------------------|

Eb|---------------------------------|-----------------------------|
Bb|---------------------------------|-------12-12-12-12h10-10-----|
Gb|---------------------------------|-------------------------h12-|
Db|~(12)~~~~~~~~~~~-----------------|-----------------------------|
Ab|---------------------------------|-----------------------------|
Db|---------------------------------|-----------------------------|

Eb|---------------------------------|-----------------------------|
Bb|---------10----------------------|-----------------------------|
Gb|----------------------12---------|---------11-------------12---|
Db|---------------------------------|-----------------------------|
Ab|---------------------------------|-----------------------------|
Db|---------------------------------|-----------------------------|

Eb|---------------------------------|-----------------------------|
Bb|---14/15-14-12-14--------------14|(14)/15-14-12-12~~~~~~~------|
Gb|---------------------------------|-----------------------------|
Db|---------------------------------|-----------------------------|
Ab|---------------------------------|-----------------------------|
Db|---------------------------------|-----------------------------|


Verse III / Outro

Guitar I
Eb|---------------|---------------|---------------|---------------|
Bb|----7---7---7--|----7---7---7--|----5---5---5--|----5---5---5--|
Gb|------7---7----|------7---7----|------7---7----|------7---7----|
Db|-9-------------|-9-------------|-7-------------|-7-------------|
Ab|---------------|---------------|---------------|---------------|
Db|---------------|---------------|---------------|---------------|

Eb|---------------|---------------|---------------|---------------|
Bb|----8---8---8--|----8---8---8--|----5---5---5--|-7---5---------|
Gb|------7---7----|------7---7----|------6---6----|---------7---6-| 
Db|-5-------------|-5-------------|-4-------------|---------------|
Ab|---------------|---------------|---------------|---------------|
Db|---------------|---------------|---------------|---------------|

Eb|---------------|---------------|---------------|---------------|
Bb|----7---7---7--|----7---7---7--|----5---5---5--|----5---5---5--|
Gb|------7---7----|------7---7----|------7---7----|------7---7----|
Db|-9-------------|-9-------------|-7-------------|-7-------------|
Ab|---------------|---------------|---------------|---------------|
Db|---------------|---------------|---------------|---------------|

Eb|---------------|---------------|---------------|---------------|-----|
Bb|----8---8---8--|----8---8---8--|----5---5---5--|-7---5---------|-7-^-|
Gb|------7---7----|------7---7----|------6---6----|---------7---6-|-7-|-|
Db|-5-------------|-5-------------|-4-------------|---------------|-9-|-|
Ab|---------------|---------------|---------------|---------------|-----|
Db|---------------|---------------|---------------|---------------|-----|


Tap to rate this tab
 
# A B C D E F G H I J K L M N O P Q R S T U V W X Y Z