Song name
# A B C D E F G H I J K L M N O P Q R S T U V W X Y Z

Staind - Tolerate tab

Help us improve GuitareTab! Take a short survey!
 Its Been Awhile Tab by Staind, www.Ultimate-Guitar.Com

 Complimentary "Its Been Awhile" ringtone
#----------------------------------PLEASE NOTE--------------------------------#
#This file is the author's own work and represents their interpretation of the#
#song. You may only use this file for private study, scholarship, or research.#
#-----------------------------------------------------------------------------#

Tuning: Drop A#

intro

Main riff 1
-----
-----
--(2*)
-3---  X8
-3---
-3---

Main riff 2
-------------------------|
-------------------------|
-------------------------|
-10h12-003-0-3/12-0-3-0--| x4
-10h12-003-0-3/12-0-3-0--|
-10h12-003-0-3/12-0-3-0--|


Verse:

-------------------------|
-------------------------|
-------------------------|
-10h12-003-0-3/12-0-3-0--| X2
-10h12-003-0-3/12-0-3-0--|
-10h12-003-0-3/12-0-3-0--|

-------|
-------|
---(2*)
-3----| X8
-3----|
-3----|


Chorus:


----------------------------------------------------|
----------------------------------------------------|
----------------------------------------------------|
-0h2h3p2h3p2p0h2----------0h2h3p2h3p2p0h2-----------|
-0h2h3p2h3p2p0h2----------0h2h3p2h3p2p0h2-----------|
-0h2h3p2h3p2p0h2----------0h2h3p2h3p2p0h2-----------|


----------------------------------------------------|
----------------------------------------------------|
----------------------------------------------------|
-0h2h3p2h3p2p0h2----------0h2h3p2h3p2p0h3-----------|
-0h2h3p2h3p2p0h2----------0h2h3p2h3p2p0h3-----------|
-0h2h3p2h3p2p0h2----------0h2h3p2h3p2p0h3-----------|

Bridge:

I'm not really sure how to play the bridge but this is what i've got so far

--------------------------------|
--------------------------------|
--------------------------------|
-10h12-0000-10h12-0000-2h3-2h3--| x4
-10h12-0000-10h12-0000-2h3-2h3--|
-10h12-0000-10h12-0000-2h3-2h3--|

-----------------------------------------------------------------------------|
-----------------------------------------------------------------------------|
--------------------------------------------------------------2*--2*--2*--2--|
-10h12-0000-10h12-0000-2h3-2h3-10h12-0000-10h12-0000-2h3-2h3-3---3---3---3---|
-10h12-0000-10h12-0000-2h3-2h3-10h12-0000-10h12-0000-2h3-2h3-3---3---3---3---|
-10h12-0000-10h12-0000-2h3-2h3-10h12-0000-10h12-0000-2h3-2h3-3---3---3---3---|
                             play 4 times


For the Outro play Main riff 2 a bunch of times and main riff 1 a few times
and then te song ends with a bunch of feedback
Related for Tolerate tab