Song name
# A B C D E F G H I J K L M N O P Q R S T U V W X Y Z

Staind - Painful tab

intro
e(---------------------------)
b(---------------------------)
g(--7------------------------)
d(--7-1222335533221100010001-)
a(--5-1222335533221100010001-)
D(----1222335533221100010001-)
    pm......................

verse
e(----------------------------)
b(----------------------------)
g(--7x7x7-7-7x7x7-------------)
d(--7x7x7-7-7x7x7-01122553322-)
a(--5x5x5-5-5x5x5-01122553322-)
D(----------------01122553322-)

chorus
e(----------------------------------------------------------------)
b(----------------------------------------------------------------)
g(--7/6-6-7/6-7/6-6-7/6-998-7/6-6-7/6----------7/6-6-7/6----------)
d(--7/6-6-7/6-7/6-6-7/6-998-7/6-6-7/6-11111111-7/6-6-7/6-00010001-)
a(--5/4-4-5/4-5/4-4-5/4-776-5/4-4-5/4-11111111-5/4-4-5/4-00010001-)
D(------------------------------------11111111-----------00010001-)
                                    pm........           ........

solo
e(-------------------------------------------------------------)
b(----------------------------14-12-11-9--------------------16-)
g(--7-66-6-76-76-------------------------77887766-7-66-6-76----)
d(---------------8-10-76---------------------------------------)
a(-----------------------8-10----------------------------------)
D(-------------------------------------------------------------)

solo continued
e(-------------------9-8/9-8/9-12/14-12/14-12/14-12/14-12/14-12/14-)
b(--9-88----11-11--------------------------------------------------)
g(-------99-------99-----------------------------------------------)
d(-----------------------------------------------------------------)
a(-----------------------------------------------------------------)
D(-----------------------------------------------------------------)

solo continued
e(--12/14-12/14-12/9-9h10-9h10-9h10-9h10-9/6-6h7-6h7-6h7-6h7---------------)
b(-----------------------------------------------------------7/9-9-10-9-9b-)
g(-------------------------------------------------------------------------)
d(-------------------------------------------------------------------------)
a(-------------------------------------------------------------------------)
D(-------------------------------------------------------------------------)

solo continued
e(-----------------------21-21-21-21-------------19-19-19-19-------------)
b(-----------------------------------21-21-21-21-------------19-19-19-19-)
g(--6h7-6-6/9-996-88-4-6-------------------------------------------------)
d(-----------------------------------------------------------------------)
a(-----------------------------------------------------------------------)
D(-----------------------------------------------------------------------)

solo continued
e(--16-16-16-16-----------------------------------------------------------)
b(--------------16-16-16-16-------------14-14-14-14--14-------------------)
g(--------------------------16-16-16-16-----------------------------------)
d(------------------------------------------------------11-11-11-11-11-11-)
a(------------------------------------------------------------------------)
D(------------------------------------------------------------------------)

solo continued
e(---------16/17-19-21-16-17-16-------------------------------)
b(------------------------------17-18-------------------------)
g(------------------------------------13h14-13h14-13h14-13h14-)
d(--11-11-----------------------------------------------------)
a(------------------------------------------------------------)
D(------------------------------------------------------------)

solo continued
e(-----------------------------------------)
b(--------------------------14-12-14-12/17-)
g(--13h14-13h14-13h14-13h14----------------)
d(-----------------------------------------)
a(-----------------------------------------)
D(-----------------------------------------)
Tap to rate this tab
# A B C D E F G H I J K L M N O P Q R S T U V W X Y Z