Song name
# A B C D E F G H I J K L M N O P Q R S T U V W X Y Z

Staind - Safe Place tab

----------------------------------------------------------------------
			 Safe Warm Place - Staind
----------------------------------------------------------------------

By: Bennis Hahn

Tune down 1/2 step.  Low to high: Eb Ab Db Gb Bb Eb

Intro/Verse/Bridge
e|-----------------------|
B|-----------------------|
G|-----------------------|
D|-7-7---5---------------|   Repeat as needed.
A|-----------------------|
E|-0---0-----00--0000----|


e|-----------------------------|
B|-----------------------------|
G|-----------------------------|
D|-----------------7-/-5--x----| Strumming pattern not shown.
A|------5-6^-5-----7-/-5--x----|
E|--5-8--------5---5-/-3--x----|

e|---------------------------------|
B|---------------------------------|
G|---------------------------------|  Outro
D|---------------------------------|
A|---------------------------------|
E|--7-7-5-7-8-8-7---7-7-5-7-8-8-7--|

One of Stainds best and easiest songs in my opinion.
======================================================================
Tap to rate this tab
 
# A B C D E F G H I J K L M N O P Q R S T U V W X Y Z