Song name
# A B C D E F G H I J K L M N O P Q R S T U V W X Y Z

Staind - Throw It All Away tab

this song is repetitive for the most part, all u have to do is figure out the placings.

i fixed some muck ups so maybe this is right, if not please make a suggestion.
this SHOULD sound better but its not perfect.


Standard Tuning EADGBe

> Slide down neck
~ Vibrato
h Hammer
p Pull off



Intro(clean) & Outro

--6----------6---------6------------------------4~-|
-----6h8--6--------8~-----6h8--8--1>4--------------|
----------------6----------------------6-----6-----|
------------------------------------------8--------|
---------------------------------------------------|
---------------------------------------------------|


Intro(cont.)(overdrive)/ not outro

--6----------6--------6---------------------4--4--4----------|
-----6h8--6--------8~----6h8--8--1>4--4--4-------------------|
----------------6------------------------------------6p3--3--| X4
-------------------------------------------------------------|
-------------------------------------------------------------|
-------------------------------------------------------------|


Verse(clean)

--6----------6--------6-----------------------4-----4----------|
-----6h8--6--------8~----6h8--8--1>4-------------6-------------|
----------------6---------------------6-----6----------6p3--3--|
-----------------------------------------8---------------------|
---------------------------------------------------------------|
---------------------------------------------------------------|


--6----------6--------6------------------------4-----4---------|
-----6h8--6--------8~----6h8--8--1>4--------------6-----6------|
----------------6---------------------6-----6------------------|
-----------------------------------------8---------------------|
---------------------------------------------------------------|
---------------------------------------------------------------|


--6----------6--------6-----------------------4-----4----------|
-----6h8--6--------8~----6h8--8--1>4-------------6-------------|
----------------6---------------------6-----6----------6p3--3--|
-----------------------------------------8---------------------|
---------------------------------------------------------------|
---------------------------------------------------------------|

Pre chorus

--6----------6---------6-----------------4--4-4444-------------|
-----6h8--6--------8~-----6h8--8--4--44--6--6-6666-------------|
----------------6-----------------6--66--6--6-6666-------------|
----------------------------------6--66------------------------|
---------------------------------------------------------------|
---------------------------------------------------------------|


Chorus(overdrive)

--6----------6--------6---------------------4--4--4----------|
-----6h8--6--------8~----6h8--8--1>4--4--4-------------------|
----------------6------------------------------------6p3--3--|
-------------------------------------------------------------|
-------------------------------------------------------------|
-------------------------------------------------------------|


the extended chorus does this number i think
(......its never enough......)
-----------4444444--2222222--|
--4444444--6666666--4444444--|
--6666666--6666666--4444444--| youll hear when this comes in
--6666666--------------------| (not correct amount of strums though)
-----------------------------|
-----------------------------|
Tap to rate this tab
# A B C D E F G H I J K L M N O P Q R S T U V W X Y Z