Song name
# A B C D E F G H I J K L M N O P Q R S T U V W X Y Z

Staind - Tangled Up In You tab

Hey everyone, I was listened to this song, remembered tabs, and found
there's a MUCH simplier way of playing this song. The tuning is slightly
different, and it is not the way Aaron plays it, but these are the
correct notes. Please rate so others can find it and play too!

Title: Tangled Up In You
Artist: Staind
Album: Illusion of Progress

Tuning: 1/2 Step Down, drop Db, drop Gb (Db Gb Db Gb Bb eb)
        Basically tune 1/2 step down, then tune strings 5 and 6 (lowest
        two) one more step down. This makes the song easier to play.
Also, try hammering on/pulling off the 3rd to 4th note in each measure.

INTRO/VERSE:
eb|----------------------------------------------------------------|
Bb|----------------------------------------------------------------|
Gb|------------------------------------2-4-------------2-4---------|
Db|----2-4-------------2-4-----------0---------------0-------------|
Gb|--2---------------2-------------0---------------0---------------|
Db|0---------------0-----------------------------------------------|

CHORUS:
eb|----------------------------------------------------------------|
Bb|----2-3-------------2-3-----------------------------------------|
Gb|--2---------------2-----------------2-4-------------2-4---------|
Db|0---------------0-----------------0---------------0-------------|
Gb|--------------------------------0---------------0---------------|
Db|----------------------------------------------------------------|


INTERLUDE: (b/w CHORUS and VERSE)            Strum & hammer 2nd time after 1st chorus
eb|----------------------------------------------------------------|
Bb|----------------------------------------------------------------|
Gb|------------------------------------2---------------2-4---------|
Db|----2-4-------------2-4-----------0---4-----------0-------------|
Gb|--2---------------2-------------0---------------0---------------|
Db|0---------------0-----------------------------------------------|

BRIDGE:
eb|----------------------------------------------------------------|
Bb|----2-3---------------------------------------------0-2---------|
Gb|--2-----------------2-4-------------2-------------2-------------|
Db|0-----------------0---------------0---4---------0---------------|
Gb|----------------0---------------0-------------------------------|
Db|----------------------------------------------------------------|

eb|--------------------------------------------------------------------------------|
Bb|----2-3---------------------------------------------0-2-------------0-2---------|
Gb|--2-----------------2-4-------------2-------------2---------------2-------------|
Db|0-----------------0---------------0---4---------0---------------0---------------|
Gb|----------------0---------------0-----------------------------------------------|
Db|--------------------------------------------------------------------------------|

OUTRO:
eb|--------------------|
Bb|------------------3-|
Gb|--------------2-----|
Db|----2-4-------------|
Gb|--2-----------------|
Db|0-------------------|


Order:
INTRO 2x
VERSE 4x
CHORUS 2x
INTERLUDE 2x
VERSE 4x
CHORUS 2x
BRIDGE
CHORUS 2x
INTERLUDE 2x
OUTRO

Please rate this tab so others may find it and play this song!

Again for you guys who want to play it exactly as Aaron does, try another
tab because he gets a different sound using the lower strings instead of
the high ones. But as far as I can hear, these are the same notes, and
this is an easier way to play it.
Tap to rate this tab
 
# A B C D E F G H I J K L M N O P Q R S T U V W X Y Z