Song name
# A B C D E F G H I J K L M N O P Q R S T U V W X Y Z

Staind - Failing tab

--STAIND - FAILING--

This was written on a baritone guitar, and is played live on a 7-string. This tab is for 
a normal 6-string for the rest of us.

Intro (slight dist.)
   E     EEEQ EEE   E E E E+Q. E     EEEQ EEE   E EE E+Q. E
Eb----|-----------|---------------|-----------|--------------|
Bb----|-----------|---------------|-----------|--------------|
Gb----|-----------|------<5>------|-----------|--------------|
Db----|-----3-0-0-|---------------|-----3-0-0-|----0-5-------|
Ab----|---1----3--|---------------|---1----3--|-1-1--3-------|
Db-0h-|-h1-1------|-5-5-5------0h-|-h1-1------|------3----0h-|

Verse (slight dist.)
      EEEQ EEE   E E E Q EEE     EEEQ EEE   E EE Q EEE
Eb|------------|--------------|-----------|-------------|
Bb|O-----------|--------------|-----------|-------------|
Gb|------------|------<5>-----|-----------|-------------|
Db|------3-0-0-|---------0----|-----3-0-0-|----0-5--0---|
Ab|O---1----3--|----------1---|---1----3--|-1-1--3-1----|
Db|--h1-1------|-5-5-5-----0h-|-h1-1------|------3---0h-|

                                      1.----------|
    EEEQ EEE   E E E Q EEE   EEEQ E EE   EEEQ EEE
Eb-----------|-------------|-----------|------------|
Bb-----------|-------------|-----------|-----------O|
Gb-----------|------<5>----|----3-2-0--|----0-------|
Db-----3-0-0-|---------0---|--3--------|------0-----|
Ab---1----3--|----------1--|-0-0-----0-|--5----1---O|
Db-h1-1------|-5-5-5-----0-|-----------|-5-5----0h--|

  2.---------------|
   E E E E E E E E
Eb-----------------|
Bb-----------------|
Gb-----------------|
Db-----------------|
Ab-5-5-5-5-5-5-5-5-|
Db-5-5-5-5-5-5-5-5-|
   P.M.------------|

Pre-Chorus                                x4
     E E E E E E S S E  +E E S S E+E E E E
C#|--------------------|----------------------|
G#|O-------------------|-------------------O--|
E-|--------------------|----------------------|
B-|--------------------|----------------------|
F#|O-2-3-2-3-5-3-2h3-2-|---0-2h3-2---0-0-0-O--|
B-|--2-3-2-3-5-3-2h3-2-|---0-2h3-2---0-0-0----|
     P.M.-----------|      P.M.---------------|

Chorus                          x4
   (make up your own rhythm)
                 E E E E E E E E
Eb|----|---|---|--------------------|
Bb|O---|---|---|-----------------O--|
Gb|----|---|---|--------------------|
Db|--5-|-1-|-8-|-1------------------|
Ab|O-5-|-1-|-8-|-1-3-3-3-3-3-3-3-O--|
Db|--5-|-1-|-8-|-1-3-3-3-3-3-3-3----|
                   P.M.-------------|

Solo Rhythm
(the Pre-Solo is just the low B string 2x)
    E Q   E E Q.    Q Q E Q.
C#|---------------|-----------|
G#|---------------|-----------|
E-|---------------|-----------|
B-|---------------|-----------|
F#|-2-3---2-5-2---|-0-3-0-2---|
B-|-2-3---2-5-2---|-0-3-0-2---|

Post-Solo Rhythm
    E E E E E E E E   E E E E E E E E
C#|-----------------|-------------------|
G#|-----------------|-------------------|
E-|-----------------|-------------------|
B-|-----------------|-------------------|
F#|-2-3-3-2-5-2-2-2-|-0-0-3-3-0-2-2-2---|
B-|-2-3-3-2-5-2-2-2-|-0-0-3-3-0-2-2-2---|
    P.M.--------------------------------|

Sorry, I couldn't figure out the lead...

Enjoy!
Tap to rate this tab
 
# A B C D E F G H I J K L M N O P Q R S T U V W X Y Z