Song name
# A B C D E F G H I J K L M N O P Q R S T U V W X Y Z

Staind - Safe Place tab

--STAIND - SAFE PLACE--

This is one of my two favorite Staind songs, this and The Bottom. The song is 
actually on a baritone guitar tuned to Ab-Eb-Bb-Db-Gb-Bb, but for the rest of us, 
this tab is just a half step down from Standard. Also, no one seemed to know what 
the weird sound was. I'm almost 100% sure that it's just Mike scraping the edge of 
his pick against the strings.

Intro Pt. 1/Verse (clean tone w/chorus)
                                    x3
      Q  E  S  S+S  S  E  S  S  S  S
Eb|-----------------------------------|
Bb|O---------------------------------O|
Gb|-----------------------------------|
Db|-----------------------------------|
Ab|O-12-12-12-10---10-10-10-10-10-10-O|
Eb|---0--0--0--0----0--0--0--0--0--0--|
                  |-----------------|
                   scrape pick
                   against strings

              dist.
   Q  E  S  S+S S S S S S S S
|-----------------------------|
|-----------------------------|
|-----------------------------|
|-----------------------------|
|-12-12-12-10---0-3h6-6p3-3p0-|
|--0--0--0--0---0-3h6-6p3-3p0-|

Intro Pt. 2                   x3
   Q   E  S  S+S S S S S S S S
|-------------------------------|
|O-----------------------------O|
|-------------------------------|
|--7/---------------------------|
|O-5/-12-12-10---0-3h6-6p3-3p0-O|
|--5/--0--0--0---0-3h6-6p3-3p0--|

  Q   E  S  S+H
|-----------------|
|-----------0-----|
|-----------0-----|
|-7/--------9-----|
|-5/-12-12-10-----|
|-5/--0--0--0-----|

Pre-Chorus
   Q   E  S  S+S S S   T T S  S+S T T
|-------------------------------------|
|O------------------------------------|
|-------------------------------------|
|--7/---------------------------------|
|O-5/-12-12-10---0--------------------|
|--5/--0--0--0---0-<3>-0-0-0-<3>--0-0-|
<>=natural harmonic    . . .      . .

                               x2
  Q   E  S  S+S S S T T S S S S
|--------------------------------|
|-------------------------------O|
|--------------------------------|
|-7/-----------------------------|
|-5/-12-12-10---0-0-0-0-0-0-0-0-O|
|-5/--0--0--0---0-0-0-0-0-0-0-0--|
                . . . . . . . .

Chorus
   Q E S S+S S S S S S S S
|--------------------------|
|O-------------------------|
|--------------------------|
|--7-7-6-7---7-7-7-6/7-7-7-|
|O-5-5-5-5---5-5-5-5---5-5-|
|--3-3-3-3---3-3-3-3---3-3-|

                                  x3
   Q  E S  S+S  S  S  S S  S  S  S
|-----------------------------------|
|----------------------------------O|
|-----------------------------------|
|-10-10-9-10---10-10-10-9/10-10-10--|
|--7--7-7--7----7--7--7-7-----7--7-O|
|--5--5-5--5----5--5--5-5-----5--5--|

  Q E S S+S S S S S S S S    Q  E S  S+H
|-------------------------|----------------|
|-------------------------|----------------|
|-------------------------|----------------|
|-7-7-6-7---7-7-7-6/7-7-7-|-10-10-9/10-----|
|-5-5-5-5---5-5-5-5---5-5-|--7--7-7--------|
|-3-3-3-3---3-3-3-3---3-3-|--5--5-5--------|

clean tone w/chorus
   Q  E S  S+H
|----------------|
|----------------|
|----------------|
|-10-10-9/10-----|
|--7--7-7--------|
|--5--5-5--------|

Bridge (dist.)
   S S S s S s S S S S S S  E   E
|----------------------------------|
|O---------------------------------|
|----------------------------------|
|--3-3-3-------3-3-3-3-3-3---------|
|O-3-3-3---3---3-3-3-3-3-3-<5>-<5>-|
|--1-1-1---1---1-1-1-1-1-1---------|
           .

                                 x3
  S S S S S s S S+S S S S  E   E
|----------------------------------|
|---------------------------------O|
|----------------------------------|
|----------------------------------|
|-5-5-5-5-3---6-5---5-5-5---------O|
|-5-5-5-5-3---6-5---5-5-5-<3>-<3>--|

  S S S s S s S S S S S S  E   E
|---------------------------------|
|---------------------------------|
|---------------------------------|
|-3-3-3-------3-3-3-3-3-3---------|
|-3-3-3---3---3-3-3-3-3-3-<5>-<5>-|
|-1-1-1---1---1-1-1-1-1-1---------|
          .

  S S S S S s S S+H
|---------------------|
|---------------------|
|---------------------|
|---------------------|
|-5-5-5-5-3---6-5-----|
|-5-5-5-5-3---6-5-----|

Verse 3
                                  x3
    Q  E  S  S+S  S  E  S  S  S  S
|-----------------------------------|
|O---------------------------------O|
|-----------------------------------|
|-----------------------------------|
|O-12-12-12-10---10-10-10-10-10-10-O|
|---0--0--0--0----0--0--0--0--0--0--|
                |-----------------|
                 scrape pick
                 against strings

   Q  E  S  S+H
|-----------------|
|-----------0-----|
|-----------0-----|
|-----------9-----|
|-12-12-12-10-----|
|--0--0--0--0-----|

Outro                     x3
   Q E S S+S S S S S S S S    Q E S S+H
|---------------------------|-------------|
|O-----------------0-------O|-------------|
|--0-----------------0------|-------------|
|--5-5-4h5-----5-------4----|-5-5-4h5-----|
|O-7-7-7---------7-------7-O|-7-7-7-------|
|--0-0-0-----0--------------|-0-0-0-------|
Tap to rate this tab
# A B C D E F G H I J K L M N O P Q R S T U V W X Y Z