Song name
# A B C D E F G H I J K L M N O P Q R S T U V W X Y Z

Staind - Now tab

This for people who tuned there guitars to Mike's Baritone tuning.
The baritone tuning is : G# C# G# C# F# A# (low to high)

I figured this out by ear and this is hard but so much fun to play. It's a fast song

A#|-----------17----14----17----14----17--|
F#|---------------------------------------|
C#|--14-15-15----15----15----15----15-----|
G#|---------------------------------------|(Played 5x)
C#|---------------------------------------|
G#|---------------------------------------|


A#|-----------17----14----15----14----14--|
F#|---------------------------------------|
C#|--14-15-15----15----15----15----15-----|
G#|---------------------------------------|
C#|---------------------------------------|
G#|---------------------------------------|


A#|-----------17----14----17----14----17--|
F#|---------------------------------------|
C#|--14-15-15----15----15----15----15-----|
G#|---------------------------------------|
C#|---------------------------------------|
G#|---------------------------------------|


A#|-----------------15----14-----14-------|
F#|-----------14--------------------------|
C#|--14-15-15----15----15----15-----------|
G#|---------------------------------------|
C#|---------------------------------------|
G#|---------------------------------------|
Tap to rate this tab
 
# A B C D E F G H I J K L M N O P Q R S T U V W X Y Z