Song name
# A B C D E F G H I J K L M N O P Q R S T U V W X Y Z

Staind - Price To Play tab

Band - Staind
Song - Price To Play

Gtr I (Gb Db Ab Db Gb Bb) - 'Mike Mushok - Rhythm Baritone w/dist'
Gtr II (Db Ab Db Gb Bb Eb) - 'Mike Mushok - Rhythm w/dist'

Intro
    Q=106
   4/4
    Gtr I
    S S S S +S  S S S S E S S S S S   S S S S +S  S S S S E S S S S S
||----------------------------------|---------------------------------|
||o---------------------------------|---------------------------------|
||----------------------------------|---------------------------------|
||----------------------------------|---------------------------------|
||o---0---5-(5)-0---0---5-0---0-5-5-|---0---5-(5)-0---0---5-0---0---0-|
||--7---7-5-(5)---7---7-5---7---5-5-|-7---7-5-(5)---7---7-5---8---8---|
|
|   Gtr II
|   E   S S +S  S S S S E S S S S S   E   S S +S  S S S S E S S S S S
||----------------------------------|---------------------------------|
||o---------------------------------|---------------------------------|
||----------------------------------|---------------------------------|
||--------5-(5)-x-------5-x-----5---|-------5-(5)-x-------5-x---------|
||o-------3-(3)-x-------3-x-----3-x-|-------3-(3)-x-------3-x---------|
||--0---0---------0-0-0-----0-0-----|-0---0---------0-0-0-----1-1-1-1-|


  S S S S +S  S S S S E S S S S S   S S S S +S  S S S S E S  S  S  S  S
|---------------------------------|---------------------------------------||
|---------------------------------|--------------------------------------o||
|---------------------------------|---------------------------------------||
|---------------------------------|---------------------------------------||
|---0---5-(5)-0---0---5-0---0-5-5-|---0---5-(5)-0---0---5-0-10-10-10-10--o||
|-7---7-5-(5)---7---7-5---7---5-5-|-7---7-5-(5)---7---7-5---10-10-10-10---||
|
| E   S S +S  S S S S E S S S S S   E   S S +S  S S S S E S  S  S  S  S
|---------------------------------|---------------------------------------||
|---------------------------------|--------------------------------------o||
|---------------------------------|---------------------------------------||
|-------5-(5)-x-------5-x-----5---|-------5-(5)-x-------5-x---------------||
|-------3-(3)-x-------3-x-----3-x-|-------3-(3)-x-------3-x--------------o||
|-0---0---------0-0-0-----0-0-----|-0---0---------0-0-0------1--1--1--1---||


 Verses
  $
  PM--------------------------------------------------------------|
  S S S S +S  S S S S E S S S S S   S S S S +S  S S S S E S S S S S
|---------------------------------|----------------------------------|
|---------------------------------|----------------------------------|
|---------------------------------|----------------------------------|
|---------------------------------|----------------------------------|
|---0---5-(5)-0---0---5-0---0-----|---0---5-(5)-0---0---5-0---0---0--|
|-7---7-5-(5)---7---0-5---7---5-7-|-7---7-5-(5)---7---0-5---8---8----|
|-Rhy Fig 1

  PM-----------------------------------------------------------------|
  S S S S +S  S S S S E S S S S S   S S S S +S  S S S S E S  S  S  S  S
|---------------------------------|--------------------------------------|
|---------------------------------|--------------------------------------|
|---------------------------------|--------------------------------------|
|---------------------------------|--------------------------------------|
|---0---5-(5)-0---0---5-0---0-----|---0---5-(5)-0---0---5-0-10-10-10-10--|
|-7---7-5-(5)---7---0-5---7---5-7-|-7---7-5-(5)---7---7-5---10-10-10-10--|
                                                           end Rhy Fig 1-|

Rhy Fig 1


 Pre-Chorus
  E. S +E  E +S  E. E E   E. S +E  E +S  E.  S  S  S  S
|-----------------------|-------------------------------|
|-----------------------|-------------------------------|
|-0--------0-(0)----0---|-0--------0-(0)----------------|
|-0--------0-(0)----0---|-0--------0-(0)----10-10-10-10-|
|-0--5-(5)-0-(0)-5--0-5-|-0--5-(5)-0-(0)-5--10-10-10-10-|
|----5-(5)-------5----5-|----5-(5)-------5--10-10-10-10-|
|
| Gtr II
| E. S +E  E +S  E. E E   E. S +E  E +S  E.  S  S  S  S
|-----------------------|-------------------------------|
|-----------------------|-------------------------------|
|-----------------------|-------------------------------|
|----5-(5)-------5----5-|----5-(5)-------5---5--5--5--5-|
|----3-(3)-------3----3-|----3-(3)-------3---3--3--3--3-|
|-0--------0-(0)----0---|-0--------0-(0)-----3--3--3--3-|


 
  E. S +E  E +S  E. E E   E. S +E  E +S  E. S S S S
|-----------------------|---------------------------|
|-----------------------|-------------------6-6-6-6-|
|-0--------0-(0)----0---|-0--------0-(0)----6-6-6-6-|
|-0--------0-(0)----0---|-0--------0-(0)----6-6-6-6-|
|-0--5-(5)-0-(0)-5--0-5-|-0--5-(5)-0-(0)-5--6-6-6-6-|
|----5-(5)-------5----5-|----5-(5)-------5----------|
|
| E. S +E  E +S  E. E E   E. S +E  E +S  E. S S S S
|-----------------------|---------------------------|
|-----------------------|---------------------------|
|-----------------------|-------------------6-6-6-6-|
|----5-(5)-------5----5-|----5-(5)-------5--6-6-6-6-|
|----3-(3)-------3----3-|----3-(3)-------3--6-6-6-6-|
|-0--------0-(0)----0---|-0--------0-(0)----6-6-6-6-|


   Chorus
 $$
     E   S  S  E   S  S  S   S   S  S  E  S  S
||---------------------------------------------|
||o--------------------------------------------|
||--10--10-10-10--10-10-10--10--10-10-10-10-10-|
||---8---8--8--8---8--8--8---8---8--8--8--8--8-|
||o--8---8--8--8---8--8--8---8---8--8--8--8--8-|
||---------------------------------------------|
|
|    E.     S +E   E    +S   E.        E  E
||---1-------------1----(1)------------1-------|
||o---------3-(3)------------3------------3----|
||---------------------------------------------|
||---------------------------------------------|
||o--------------------------------------------|
||---------------------------------------------|
 |-Riff A                           end Riff A-|

w/Riff A
   E   S  S  E   S  S  S   S   S  S  E  S  S
|--------------------------------------------|
|--------------------------------------------|
|-12--12-12-12--12-12-12--12--12-12-12-12-12-|
|-10--10-10-10--10-10-10--10--10-10-10-10-10-|
|-10--10-10-10--10-10-10--10--10-10-10-10-10-|
|--------------------------------------------|


   E   S  S  E   S  S  S   S   S  S  E  S  S
|---------------------------------------------|
|---------------------------------------------|
|-14--14-14-14--14-14-14--14--14-14-14-14-14--|
|-12--12-12-12--12-12-12--12--12-12-12-12-12--|
|-12--12-12-12--12-12-12--12--12-12-12-12-12--|
|---------------------------------------------|
|
|  E.     S +E   E    +S   E.        E  E
|--5-------------5----(5)------------5--------|
|---------3-(3)------------3------------3-----|
|---------------------------------------------|
|---------------------------------------------|
|---------------------------------------------|
|---------------------------------------------|
|-Riff B                           end Riff B-|

w/Riff B
  1.,2.,3.
   E   S  S  E   S  S  S   S   S  S  E  S  S
|----------------------------------------------||
|---------------------------------------------o||
|-15--15-15-15--15-15-15--15--15-15-15-15-15\--||
|-12--12-12-12--12-12-12--12--12-12-12-12-12\--||
|-12--12-12-12--12-12-12--12--12-12-12-12-12\-o||
|----------------------------------------------||


  4.
                                             To Coda
                                      To Double Coda
    E   S  S  E   S  S  S   S   S  S  E    S  S
|-----------------------------------------------||
|-----------------------------------------------||
|--15--15-15-15--15-15-15--15--15-15-15---15-15-||
|--12--12-12-12--12-12-12--12--12-12-12---12-12-||
|--12--12-12-12--12-12-12--12--12-12-12---12-12-||
|-----------------------------------------------||
|
|   E.     S +E   E    +S   E.        S S  E
|---6-------------5----(5)----------------------||
|----------3-(3)------------3---------6-6--6----||
|-----------------------------------------------||
|-----------------------------------------------||
|-----------------------------------------------||
|-----------------------------------------------||


                                                          D.S. al Coda
   PM---------------------------------------------------------------|
   S  S S S +S  S S S S E S S S S S   S S S S +S  S S S S E S S S S S
|-----------------------------------|----------------------------------||
|-----------------------------------|----------------------------------||
|-----------------------------------|----------------------------------||
|-----------------------------------|----------------------------------||
|-----0---5-(5)-0---0---5-0---0-----|---0---5-(5)-0---0---5-0---0---0--||
|--7----7-5-(5)---7---0-5---7---5-7-|-7---7-5-(5)---7---0-5---8---8----||
|
| +W                                  W
|-----------------------------------|----------------------------------||
|-(6)-------------------------------|----------------------------------||
|-----------------------------------|----------------------------------||
|-----------------------------------|----------------------------------||
|-----------------------------------|----------------------------------||
|-----------------------------------|----------------------------------||


   Bridge
                         1.,2.,3.
    &
    PM------------------------------|
    S E S E e S E S E e   S E S E e e S S S S S S
||----------------------|--------------------------||
||o---------------------|-------------------------o||
||----------------------|--------------------------||
||----------------------|--------------------------||
||o-7---7---7-7---7---7-|-7---7---7-7-5-5-5-5-5-5-o||
||--7---7---7-7---7---7-|-7---7---7-7-5-5-5-5-5-5--||
|
|   PM------------------------------|
|   S E S E e S E S E e   S E S E e e S S S S S S
||----------------------|--------------------------||
||o---------------------|-------------------------o||
||----------------------|--------------------------||
||----------------------|-------------5-5-5-5-5-3--||
||o---------------------|-------------3-3-3-3-3-5-o||
||--0---0---0-0---0---0-|-0---0---0-0--------------||
 |-Rhy Fig 2

  4.
        D.S.S. al Dbl. Coda
   PM--------|
   S E S E e e S S S S S S
|---------------------------||
|--------------6-6-6-6-6-6--||
|--------------6-6-6-6-6-6--||
|--------------6-6-6-6-6-6--||
|--7---7---7-7-6-6-6-6-6-6--||
|--7---7---7-7--------------||
|
|  PM--------|
|  S E S E e e S S S S S S
|---------------------------||
|---------------------------||
|---------------------------||
|--------------6-6-6-6-6-6--||
|--------------6-6-6-6-6-6--||
|--0---0---0-0-6-6-6-6-6-6--||
              end Rhy Fig 2-|

   Outro
w/Rhy Fig 2
                         1.,2.,3.
    &&
    PM------------------------------|
    S E S E e S E S E e   S E S E e e S S S S S S
||----------------------|--------------------------||
||o---------------------|-------------------------o||
||----------------------|--------------------------||
||----------------------|--------------------------||
||o-7---7---7-7---7---7-|-7---7---7-7-5-5-5-5-5-5-o||
||--7---7---7-7---7---7-|-7---7---7-7-5-5-5-5-5-5--||


  4.
   PM--------|
   S E S E e e  S   S   S   S   S   S
|---------------------------------------*|
|---------------------------------------*|
|--------------<6>-<6>-<6>-<6>-<6>-<6>--*|
|--------------<6>-<6>-<6>-<6>-<6>-<6>--*|
|--7---7---7-7-<6>-<6>-<6>-<6>-<6>-<6>--*|
|--7---7---7-7--------------------------*|
Tap to rate this tab
# A B C D E F G H I J K L M N O P Q R S T U V W X Y Z