Song name
# A B C D E F G H I J K L M N O P Q R S T U V W X Y Z

Staind - Something To Remind You tab

                            Something To Remind You                             


                                                                          Staind
Track 1 (Capo 1)



      Q    E  E  E  E  Q       Q    E  E  E  E  Q       Q    E  E  E  E  Q     
E||-----------------------|------------------------|------------------------|
B||------5-----5-----5----|-------5-----5-----5----|-------3-----3-----3----|
G||*--------5-----5-------|----------5-----5-------|----------5-----5-------|
D||*----------------------|------------------------|------------------------|
A||-----------------------|------------------------|------------------------|
E||---5-------------------|--5---------------------|--3---------------------|


  Q    E  E  E  E  Q       Q    E  E  E  E  Q       Q    E  E  E  E  Q     
------------------------|-------1-----1-----1----|-------1-----1-----1----|
-------3-----3-----3----|----------1-----1-------|----------1-----1-------|
----------5-----5-------|------------------------|------------------------|
------------------------|------------------------|------------------------|
------------------------|------------------------|------------------------|
--3---------------------|--1---------------------|--1---------------------|


  Q    E  E  E  E  Q       Q    Q    Q    Q       Q    E  E  E  E  Q     
------------------------|--0-------------------|------------------------|
-------3-----3-----3----|-------3--------------|-------5-----5-----5----|
----------4-----4-------|------------5----4----|----------5-----5-------|
--2---------------------|----------------------|------------------------|
------------------------|----------------------|------------------------|
------------------------|----------------------|--5---------------------|


  Q    E  E  E  E  Q       Q    E  E  E  E  Q       Q    E  E  E  E  Q     
------------------------|------------------------|------------------------|
-------5-----5-----5----|-------3-----3-----3----|-------3-----3-----3----|
----------5-----5-------|----------5-----5-------|----------5-----5-------|
------------------------|------------------------|------------------------|
------------------------|------------------------|------------------------|
--5---------------------|--3---------------------|--3---------------------|


  Q    E  E  E  E  Q       Q    E  E  E  E  Q       Q    E  E  E  E  Q     
-------1-----1-----1----|-------1-----1-----1----|------------------------|
----------1-----1-------|----------1-----1-------|-------3-----3-----3----|
------------------------|------------------------|----------4-----4-------|
------------------------|------------------------|--2---------------------|
------------------------|------------------------|------------------------|
--1---------------------|--1---------------------|------------------------|


  Q    Q    Q    Q       Q    E  E  E  E  Q       Q    E  E  E  E  Q     
--0-------------------|------------------------|------------------------|
-------3--------------|-------5-----5-----5----|-------5-----5-----5----|
------------5----4----|----------5-----5-------|----------5-----5-------|
----------------------|------------------------|------------------------|
----------------------|------------------------|------------------------|
----------------------|--5---------------------|--5---------------------|


  Q    E  E  E  E  Q       Q    E  E  E  E  Q       Q    E  E  E  E  Q     
------------------------|------------------------|-------1-----1-----1----|
-------3-----3-----3----|-------3-----3-----3----|----------1-----1-------|
----------5-----5-------|----------5-----5-------|------------------------|
------------------------|------------------------|------------------------|
------------------------|------------------------|------------------------|
--3---------------------|--3---------------------|--1---------------------|


  Q    E  E  E  E  Q       Q    E  E  E  E  Q       Q    Q    Q    Q     
-------1-----1-----1----|------------------------|--0-------------------|
----------1-----1-------|-------3-----3-----3----|-------3--------------|
------------------------|----------4-----4-------|------------5----4----|
------------------------|--2---------------------|----------------------|
------------------------|------------------------|----------------------|
--1---------------------|------------------------|----------------------|


  Q    E  E  E  E  Q       Q    E  E  E  E  Q       Q    E  E  E  E  Q     
-------1-----1-----1----|-------1-----1-----1----|------------------------|
----------1-----1-------|----------1-----1-------|-------1-----1-----1----|
------------------------|------------------------|----------0-----0-------|
------------------------|------------------------|------------------------|
------------------------|------------------------|--3---------------------|
--1---------------------|--1---------------------|------------------------|


  Q    E  E  E  E  Q       Q    E  E  E  E  Q       Q    E  E  E  E  Q     
------------------------|------------------------|------------------------|
-------1-----1-----1----|------------------------|------------------------|
----------0-----0-------|-------2-----2-----2----|-------2-----2-----2----|
------------------------|----------3-----3-------|----------3-----3-------|
--3---------------------|--5---------------------|--5---------------------|
------------------------|------------------------|------------------------|


  Q    E  E  E  E  Q       Q    Q    Q    Q       Q    Q    Q    E  E   
------------------------|--0-------------------|-----------------------|
-------3-----3-----3----|-------3--------------|------------0-------1--|
----------4-----4-------|------------5----4----|-------2---------------|
--2---------------------|----------------------|-----------------------|
------------------------|----------------------|--0--------------0-----|
------------------------|----------------------|-----------------------|


  E  E  E  E  E  E  E  E     Q    Q    Q    E  E     E  E  E  E  E  E  E  E   
------------------------|-----------------------|--------------------------|
L-----1-----1-----0-----|--------------------1--|--L-----1-----1-----0-----|
---2-----2-----2-----2--|-------0----2----------|-----0-----0-----0-----0--|
------------------------|-----------------------|--------------------------|
------------------------|-----------------------|--------------------------|
------------------------|--3--------------3-----|--------------------------|


  Q    Q    Q    E  E     E  E  E  E  E  E  E  E     Q    Q    Q    E  E   
-----------------------|--------------------------|-----------------------|
--------------------1--|--L-----1-----1-----1-----|--------------------1--|
-----------------2-----|-----2-----2-----2-----2--|-------0----2----------|
------------3----------|--------------------------|-----------------------|
-------3---------------|--------------------------|-----------------------|
--1--------------------|--------------------------|--3--------------3-----|


  E  E  E  E  E  E  E  E     Q    Q    Q    E  E     E  E  E  E  E  E  E  E   
------------------------|-----------------------|--------------------------|
L-----1-----1-----0-----|------------0-------1--|--L-----1-----1-----0-----|
---0-----0-----0-----0--|-------2---------------|-----2-----2-----2-----2--|
------------------------|-----------------------|--------------------------|
------------------------|--0--------------0-----|--------------------------|
------------------------|-----------------------|--------------------------|


  Q    Q    Q    E  E     E  E  E  E  E  E  E  E     Q    Q    Q    E  E   
-----------------------|--------------------------|-----------------------|
--------------------1--|--L-----1-----1-----0-----|--------------------1--|
-------0----2----------|-----0-----0-----0-----0--|-----------------2-----|
-----------------------|--------------------------|------------3----------|
-----------------------|--------------------------|-------3---------------|
--3--------------3-----|--------------------------|--1--------------------|


  E  E  E  E  E  E  E  E     Q    Q    Q    E  E     W                 3x
--------------------------|--------------------1--|--L-----------------||
--L-----1-----1-----1-----|--------------------1--|--L-----------------||
-----2-----2-----2-----2--|-------0----2-------2--|--L----------------*||
--------------------------|--------------------3--|--L----------------*||
--------------------------|--------------------3--|--L-----------------||
--------------------------|--3--------------3--1--|--L-----------------||




Duration Legend
---------------
W - whole
H - half
Q - quarter
E - 8th
S - 16th
T - 32nd
X - 64th
. - note dotted
|-n-|  - n-tuplets


Apologies for lack of vocals and guitar solos, I just 
tabbed out the chords for a student and thought I'd 
upload it incase anyone else wants to learn the main 
guitar part. Feel free to take this and add the other 
parts if you like, though!

Rob
Tap to rate this tab
# A B C D E F G H I J K L M N O P Q R S T U V W X Y Z