Song name
# A B C D E F G H I J K L M N O P Q R S T U V W X Y Z

Staind - Schizophrentic Conversations tab

for my guitar cover    http://www.youtube.com/watch?v=3SgjoqMrrUU
standard tunning EADGHe (EU) / EADGBe (US)
capo on 1st fret !

chords : Asus2 or A      Esus4 or Em     fmaj7     G6
       e--0-------0---------------0----------------0------|
       H--0-------2---------------0-------1--------1------|
       G--2-------2-------2-------0-------2--------0------|
       D--2-------2-------2-------2-------3--------0------|
       A--0-------0-------2-------2-------0--------2------|
       E------------------0-------0----------------3------|

          C    Cmaj/E      E     E7      Am     F     G
       e--0------3---------0-----0-------0------1-----3------|
       H--1------1---------0-----3-------1------1-----3------|
       G--0------0---------1-----1-------2------2-----4------|
       D--2------2---------2-----2-------2------3-----5------|
       A--3------3---------2-----2-------0------3-----5------|
       E-------------------0-----0--------------1-----3------|

intro :capo on 1st fret !

e-------------------------------------------0---------|
H--------2p0---0-----1p0---1-1--1p0-1-1-1----2p0------|
G--2-2------2--0-2------2--2--2-------0--0------------|
D--2--2--------2--2--------3---3------0---0-----------|
A--0---0-------2---2-------0----------2---------------|
E-------------------------------------3---------------|
 you can play this pattern during verses or use just chords.

chords:

Asus2(A)  Esus4(Em)           fmaj7
 Are you afraid, afraid of the truth

       G6
In the mirror staring back at you.

Asus2         Esus4                fmaj7   G6
  The image is cracked but so is the view,  here.

And the strength of a tree begins in the roots
That I tend bury into you
At least now the storm can't blow me away.

fmaj7    G6        asus2  Em       fmaj7
       So crawl inside my head with me.

     G6       asus2  Em      fmaj7
I'll show you how it feels to be,
  G9
To blame like me.

Should I be afraid of this face that I see
In the mirror staring back at me?
So cold were the days when I listened to you.
And you say that I'm weak so show me the proof
Because I still exist in spite of you
But I won't compete with you every day.

fmaj7    G6        asus2  Em       fmaj7
       So crawl inside my head with me.

     G6       asus2  Em      fmaj7
I'll show you how it feels to be,
  G9
To blame like me.

 solo/bridge:

 C  Cmaj/E   E    E7

Am                            F
  Schizophrenic conversations that

             G             C
  I'm always having with myself.

Cmaj/E  E    E7    Am
      I hear these voices in my head competing.

F              G            C
 Maybe I could use a little help

Cmaj/E   E    E7    Am
 I       still have schizophrenic conversations

F                    G              C
 When there's no one else around to hear.

Cmaj/E  E   E7   Am
      I long for solitude and peace within me

F                G             fmaj7
 Void of all the anger and the fear.

   G6      asus2   Em        fmaj7
So crawl inside my head with me.

        G6                          asus2
And I'll show you how it feels to be,

       Em      fmaj7
Fucked up like me.

        G6                          asus2
And I'll show you how it feels to be

   Em         fmaj7
To blame like me

  G6          asus2
Ashamed like me ..continue with outro :

   e-----------------------------|
   H--------2p0---0-----1p0---1--|
   G--2-2------2--0-2------2--2--|
   D--2--2--------2--2--------3--|
   A--0---0-------2---2-------0--|
   E-----------------------------|  let ring...
Tap to rate this tab
# A B C D E F G H I J K L M N O P Q R S T U V W X Y Z